Kravitz Lenny - Stillness Of Heart Chords & Tabs

 

Stillness Of Heart Chords & Tabs

Kravitz Lenny Chords & Tabs

Version: 1 Type: Tab 0 ratings
1 star 2 stars 3 stars 4 stars 5 stars
comments

Stillness Of Heart Tab

   
Lenny Kravitz - "Stillness of Heart"

Tabbed by Ofir Peretz


Verse

Gm   Gm
Gm   Gm
Cm   Cm
Eb   Eb



Chorus

Bb    F   
Cm    Eb

Bb    F
Cm    Eb                       


Bridge:

C    Eb
C    Eb
C    Eb
F


Solo

(first part starts right after "anyone ?")

|-----------------------------------------|
|-6h8vvv\--6-8----------------------------|
|--------------7-5--------5h7p5-----------|
|------------------8-5--8-------8p5-5vvv/-|
|-----------------------------------------|
|-----------------------------------------|

[ Tab from: http://www.guitartabs.cc/tabs/k/kravitz_lenny/stillness_of_heart_tab.html ]
|-----------10p8----------------/10---13---10--10---------------|
|-8h10-11-8------11-------------------------------13p11---------|
|-------------------11vvv-------------------------------10vvv---|
|---------------------------------------------------------------|
|---------------------------------------------------------------|
|---------------------------------------------------------------|


|-----6---------------/10p8---------8-10-10-/13-13-15-15-17-17-18-18--/22------|
|-6h8---8-10/13\11-8--------11-8-11--------------------------------------------|
|------------------------------------------------------------------------------|
|------------------------------------------------------------------------------|
|------------------------------------------------------------------------------|
|------------------------------------------------------------------------------|


Comments