Kravitz Lenny - Let Love Rule Chords & Tabs

 

Let Love Rule Chords & Tabs

Kravitz Lenny Chords & Tabs

Version: 2 Type: Bass Tab 0 ratings
1 star 2 stars 3 stars 4 stars 5 stars
comments

Let Love Rule Bass Tab

Lenny Kravitz - Let love rule (bass) outro consists of 6 parts:

(1st, 3rd, 4th and 5th part)
E|--3--3-----3-3--3----0-1-2-3--3-----3-|-3--3----0-1-2-|-3--3-----3-3--3-
A|--------------------------------------|---------------|-----------------
D|--------5------------------------5----|---------------|-------5---------
G|--------------------------------------|---------------|-----------------
                                                 1st+5th
                                        |-0-33----------|
                                        |------33-44-5-7|
                                        |---------------|
                                        |---------------|
                                                     3rd
                                        |------------6-3|
                                        |5-----5-4-3----|
                                        |--5-3----------|
                                        |---------------|
                                                     4th
[ Tab from: http://www.guitartabs.cc/tabs/k/kravitz_lenny/let_love_rule_btab_ver_2.html ]
-0-1-2-3--3-|------------6-4-0|
------------|---5---5-4-3-----|
------------|5---5-3----------|
------------|-----------------|
                           1st
            |-----------------|
            |2-2-3-3-4-4-5----|
            |--------------/5-|
            |-----------------|
                           3rd
            |-----------------|
            |2-3-4-5----------|
            |---------5--7----|
            |-----------------|
                           4th
            |--------------6-3|
            |--------5-4-3----|
            |5-5-5-3----------|
            |-----------------|
                           5th

(2nd and 6th part)
E|-3--3-----3--3------3--3------3--3------3-3--3-----3-3--3-|
A|----------------------------------------------------------|
D|-------5------------------5---------------------5---------|
G|---------------16\-----------------18\--------------------|

E|--0-1-2-333-------------------|
A|------------222-333-444-55-7\-|
D|------------------------------|
G|------------------------------|
                             2nd
E|--0-1-2-3--3------------------|
A|------------2--23--34--45-----|
D|--------------------------/5--|
G|------------------------------|
                             6th

last part
E|-3--3----0-3-3-3--0-1-2-x-|
A|--------------------------|
D|-------5------------------|
G|--------------------------|
Submitted by dION (kantongerecht@hotmail.com)
Comments