Kravitz Lenny - Lady Chords & Tabs

 

Lady Chords & Tabs

Kravitz Lenny Chords & Tabs

Version: 2 Type: Tab 1 rating
1 star 2 stars 3 stars 4 stars 5 stars
comments

Lady Tab

   
#----------------------------------PLEASE NOTE---------------------------------#
#This file is the author's own work and represents their interpretation of the #
#song. You may only use this file for private study, scholarship, or research. #
#------------------------------------------------------------------------------#


Artist = Lenny Kravitz
Song = Lady

[Originally tabbed by Kyle Flood, flash_flood_alert@yahoo.com]
[With my edits* - Alex Viray, av312@comcast.net]

b = bend
v = vibrato
h = hammer


     beat: 1   2   3 +   +   +   + 3   4                   
                             
       e :-3---3---3-3---3---3---3-3---3--| 
       B :-3---3---3-3---3---3---3-3---3--| 
A:     G :-4---4---4-4---4---4---4-4---4--|     
       D :-5---5---5-5---5---5---5-5---5--| 
       A :-5---5---5-5---5---5---5-5---5--| 
       E :-3---3---3-3---3---3---3-3---3--| 



     beat: 1   2   3 +   +   + 2   3   4 

       e :-1---1---1-1---1---0-0---0---0--| 
       B :-1---1---1-1---1---0-0---0---0--| 
B*:    G :-2---2---2-2---2---1-1---1---1--| 
       D :-3---3---3-3---3---2-2---2---2--| 
       A :-3---3---3-3---3---2-2---2---2--| 
       E :-1---1---1-1---1---0-0---0---0--| 



     beat: 1   2  3  +   +   +   + 3   4
 
       e :-8---8--8--8---7---7---7-7---7--| 
       B :-8---8--8--8---7---7---7-7---7--| 
C:     G :-9---9--9--9---8---8---8-8---8--| 	
       D :-10--10-10-10--9---9---9-9---9--| 
       A :-10--10-10-10--9---9---9-9---9--| 
       E :-8---8--8--8---7---7---7-7---7--| 



     beat: 1   2   3  +    +   +   + 3   4

       e :-12--12--12-12---5---5---5-5---5-| 
       B :-12--12--12-12---5---5---5-5---5-| 
D:     G :-13--13--13-13---6---6---6-6---6-| 
       D :-14--14--14-14---7---7---7-7---7-| 
       A :-14--14--14-14---7---7---7-7---7-| 
       E :-12--12--12-12---5---5---5-5---5-| 


[ Tab from: http://www.guitartabs.cc/tabs/k/kravitz_lenny/lady_tab_ver_2.html ]
     beat: 1  +  2  +  3  +  4  +         1  +  2  +  3  +  4  +  
	
       e :--0--0--0--0--0--0--0--0-|     -5--5--5--5--5--5--5--5--| 
       B :--0--0--0--0--0--0--0--0-|     -5--5--5--5--5--5--5--5--| 
E*:    G :-13-13-13-13-13-13-13-13-| x2  -6--6--6--6--6--6--6--6--| x2
       D :-14-14-14-14-14-14-14-14-|     -7--7--7--7--7--7--7--7--| 
       A :-14-14-14-14-14-14-14-14-|     -7--7--7--7--7--7--7--7--| 
       E :-12-12-12-12-12-12-12-12-|     -5--5--5--5--5--5--5--5--| 

     beat: 1  +  2  +  3  +  4  +         1  +  2  +  3  +  4  +  
	
       e :-8--8--8--8--8--8--8--8--|     -0--0--0--0--0--0--0--0--| 
       B :-8--8--8--8--8--8--8--8--|     -0--0--0--0--0--0--0--0--|
       G :-9--9--9--9--9--9--9--9--| x2  -13-13-13-13-13-13-13-13-| x2
       D :-10-10-10-10-10-10-10-10-|     -14-14-14-14-14-14-14-14-| 
       A :-10-10-10-10-10-10-10-10-|     -14-14-14-14-14-14-14-14-| 
       E :-8--8--8--8--8--8--8--8--|     -12-12-12-12-12-12-12-12-| 



solo*

       b    b      b                                        v
e :------------------------------------------------------------| 
B :-12---------------------------------------------------------| 
G :----14-12------------------------------------------------12-| 
D :----------14--12------------------------------------9-12----| 
A :----------------14-12--------------------------5-10---------| 
E :----------------------15-12-10--7-5-3-0-3--3-7--------------| 

                h     h         h                          
e :-----------------------------------------------------14-15--| 
B :-12---------------------------13----12---------12-15--------| 
G :------14-12-14-12-14-----12-14--------14-12-14--------------| 
D :------------------------------------------------------------| 
A :------------------------------------------------------------| 
E :------------------------------------------------------------| 




Order: (by sections)
A x4
b x1
A x2
b x1

A x1
C x1
D x1
C x1
D x1
C x1

A x2
b x1
A x2
b x1

A x1
C x1
D x1
C x1
D x1
C x1

E (16 measures long)
solo
C x1
D x1
C x1
D x1
C x1
D x1
C x1
E till the end


Comments