Kravitz Lenny - Just Be A Woman Chords & Tabs

 

Just Be A Woman Chords & Tabs

Kravitz Lenny Chords & Tabs

Version: 1 Type: Tab 0 ratings
1 star 2 stars 3 stars 4 stars 5 stars
comments

Just Be A Woman Tab

   
#---------------------------------PLEASE NOTE----------------------------------#
#This file is the author's own work and represents their interpretation of the #
#song. You may only use this file for private study, scholarship, or research. #
#------------------------------------------------------------------------------#

Title: Just be a woman
Artist: Lenny Kravitz
Album: Are you gonna go my way?

Instrument: 6 String Guitar

Tabbed by: Domenico Lovascio (lovabros@virgilio.it)

Tuning: 1/2 Step Down (Eb Ab Db Gb Bb Eb)

--I dedicate this song to all the women in the world (just be yourself)--

PLAY IT VERY SLOWLY

The song is based on the following chords:

   Asus2    A+sus2   A6sus2   A7add2     D       Dm7       E
Eb|--0--------1--------2--------3--------2--------5--------0----------||
Bb|--0--------0--------0--------0--------3--------6--------0----------||
Gb|--2--------2--------2--------2--------2--------5--------1----------||
Db|--2-----------------------------------0--------0--------2----------||
Ab|--0-----------------------------------------------------2----------||
Eb|--------------------------------------------------------0----------||


Intro: 

Asus2 - A+sus2 - A6sus2 - A+sus2


SOLO (Chords indicated above solo tablature)
[ Tab from: http://www.guitartabs.cc/tabs/k/kravitz_lenny/just_be_a_woman_tab.html ]
   Asus2         A+sus2              A6sus2           A+sus2 
Eb|-------------|-------------------|----------------|----------------||
Bb|-5~~~---5-5p6|-6~--10-12-10-12s14|-9-9~---5-7-7b8~|-7b8r7p5--------||
Gb|-------------|-------------------|----------------|---------7~-7/9-||
Db|-------------|-------------------|----------------|----------------||
Ab|-------------|-------------------|----------------|----------------||
Eb|-------------|-------------------|----------------|----------------||

   Asus2      A+sus2             A6sus2         A7add2
Eb|----------|------------------|--------5/7-5~|--------------5-------||
Bb|----------|---------------10~|9~----5-------|----------5/7---5/7---||
Gb|-6~~~-----|-6-7-7/9~--7~-----|--------------|--------------------7~||
Db|----------|------------------|--------------|----------------------||
Ab|----------|------------------|--------------|----------------------||
Eb|----------|------------------|--------------|----------------------||

   D            Dm7               Asus2         E
Eb|----5-7-7h8-|--7-5------5/75~|~~-----------|----------------------||
Bb|------------|------6~---------|--------5/75|~~~-------------------||
Gb|~~----------|-----------------|-------------|----------------------||
Db|------------|-----------------|-------------|----------------------||
Ab|------------|-----------------|-------------|----------------------||
Eb|------------|-----------------|-------------|----------------------||


| b bending
| r release
| ^ thrill
| t Tapping
| / slide up
|  slide down
| h hammer-on
| p pull-off
| ~ vibrato
| + harmonic
| x Mute note
Comments