Kravitz Lenny - It Aint Over Til Its Over Chords & Tabs

 

It Aint Over Til Its Over Chords & Tabs

Kravitz Lenny Chords & Tabs

Version: 1 Type: Bass Tab 0 ratings
1 star 2 stars 3 stars 4 stars 5 stars
comments

It Aint Over Til Its Over Bass Tab

It ain’t over ‘til it’s over,Lenny Kravitz 

Intro 
G-+---------------------------------------------------------------------------------+ 
D-|-*-----------------------------------------------1-----------------------------*-| 
A-|-*-4--4--4-4------1-4--4--4-4------1-4--4--1-4-4---4-1--------------0-0--------*-| 
E-+--------------1-4--------------1-4----------------------4-2--2--2-2-----1-4-4----+ 

verse 1 
G-+----------------------------------------------------------------------------------+ 
D-|-*------------------------------------------------------------------------------*-| 
A-|-*-4--4--4-4-4--1-4-1-3--3--3-3-----3---2-2--2---2-2-4-2----------------0-0-----*-| 
E-+----------------------------------4---4--------4---------4-1-2--2--2-2------4-4---+ 
chorus 
G-+---------------------------------------------------------------------------------+ 
D-|-*-----------------------------------------------1-----------------------------*-| 
A-|-*-4--4--4-4------1-4--4--4-4------1-4--4--1-4-4---4-1--------------0-0--------*-| 
E-+--------------1-4--------------1-4----------------------4-2--2--2-2-----1-4-4----+ 
verse 2 
G-+-------------------------------------------------------------------------------+ 
D-|-------------------------------------------------------------------------------| 
A-|-4--4--4-4-4--1-4-1-3--3--3-3-----3---2-2--2---2-2-4-2----------------0-0------| 
E-+--------------------------------4---4--------4---------4-1-2--2--2-2------4-4--+ 
(changing his voice) 
G-+------------1-1-1------------1-1-1-1---------------------------------------------------+ 
D-|---------------------------------------------------------------------------------------| 
A-|-4--4--4-4--------4-3--3--3--------------3-2--2--2----2---4-2--------------0-0-0-0-----| 
E-+----------------------------------------------------4---4-----4-1-2--2---2---------4-4-+ 
[ Tab from: http://www.guitartabs.cc/tabs/k/kravitz_lenny/it_aint_over_til_its_over_btab.html ]
chorus 
G-+---------------------------------------------------------------------------------+ 
D-|-*-----------------------------------------------1-----------------------------*-| 
A-|-*-4--4--4-4------1-4--4--4-4------1-4--4--1-4-4---4-1--------------0-0--------*-| 
E-+--------------1-4--------------1-4----------------------4-2--2--2-2-----1-4-4----+ 

Solo 
G---------------------------------------------------------------------------------------------- 
D------------------------------------------------------------------------------------------0-2- 
A--0---0--0-0-0----0-1-2---2--2--2---2-4-4-2-----------------------------------------0-0-4----- 
E----------------2---------------------------2--2--2-2-2--0-2-3-4---4--4-4-4--0--4-4----------- 

G--2--2-2-2-2----------------4-4-4-4----------------------------------------------------------- 
D---------------------1-2-4-------------------------------------------------------------------- 
A-------------0--2-2-----------------2/-----------------------------------------15-15---------- 
E----------------------------------------2--2--2-2-2--0-2-3-4--4-4-4-4-...-4-4/-------13/--4-4- 

G------------------+ 
D------------------| 
A--------15-15-----| 
E-----4/-------13/-+ 

Chorus 
G-+----6----------------6-----------------6---------------------------------------------------- 
D-|---------------------------------------------------1-----------------------------3-4-5-6--6- 
A-|-4----4--4-4-----1-4---4--4-4------1-4----4--4-4-4---4-1--------------------4--4------------ 
E-+-------------1-4---------------1-4-----------------------4-2-2--2-5-5-5-4-4----------------- 

G--8-6--------------------------------------------------------------+ 
D------6-3----------------1-----------------------------------------| 
A----------4--4--4--1-4-4---4-1--4--4--4------------------0-0-------| 
E----------------------------------------1-2-3-4-4-2-2--2-----4-4---+




Tabbed by JG Steinmetz(jeangabi@club-internet.fr)

Comments