Kravitz Lenny - Can't Get You Off My Mind Chords & Tabs

 

Can't Get You Off My Mind Chords & Tabs

Kravitz Lenny Chords & Tabs

Version: 1 Type: Tab 0 ratings
1 star 2 stars 3 stars 4 stars 5 stars
comments

Can't Get You Off My Mind Tab

   
CANĀ“T GET YOU OFF MY MIND
LENNY KRAVITZ
TRANSCRITA POR: MARTIN L. FRANCO   martinlfranco@msn.com

^:ligadura (hammer on)
b:bending
r:relace
~:dejar sonar 
x:solo percucion(left hand mute)
v:vibrar
-----------------------------------------------------------
sujerencias:
amp:bassman,tweed 57 o algun fender vintage
gain:15 bass:-8 mid:-5  treble:2  


parte a
e---3------------------------------------------------------|
b----0-----------------------------------------------------|
g-----0----------0-------0----0----------------------------|
d------0----------------------0----------0^2---------------|
a-------2-----------0^2--------------0^2-------0-----------|
e--------3----------------------3-3------------------------|



--------------------5-\-4-/-5---------5---7---------------|
----5-\-4-/-5-------5-\-4-/-5---------5-------------------|
----5-\-4-/-5-------5-\-4-/-5---------5-------------------|
--------------------------------------x-------------------|
--------------------------------------0-------------------|
----------------------------------------------------------|



---3------------------------------------------------------|
---0------------------------------------------------------|
---0----------0-------0-----------------------------------|
---0---------------------------------0^2------------------|
---2-------------0^2-------------0^2--------0-------------|
---3------------------------3-3---------------------------|



--------------------8--\-7-/-8------12-\-11-/-12----------|
--5--5-\-4-/-5------10-\-9-/-10-----13-\-12-/-13----------|
--5--5-\-4-/-5--------------------------------------------|
----------------------------------------------------------|
----------------------------------------------------------|
----------------------------------------------------------|



--3-------------------------------------------------------|
--0-------------------------------------------------------|
--0-----0--2^0--------2---------0-------------------------|
--0-------------2^0^2---2^0-----0---------0^2-------------|
--2-----------------------------------0^2------0----------|
--3--------------------------3----3-3---------------------|



------------------8--\-7-/-8-----12-\-11-/-12---15-\-14-/-15--|
--5--5-\-4-/-5----10-\-9-/-10----13-\-12-/-13---17-\-16-/-17--|
--5--5-\-4-/-5------------------------------------------------|
--------------------------------------------------------------|
--------------------------------------------------------------|
--------------------------------------------------------------|



coro
----------0---0-0-0----------------2-------2-------|
--0-------1---1-1-1----------------3-------3-------|
--0-------0---0-0-0----------------2-------2-------|
--0-------2---2-2-2--0^2---0-------0-------0-------|
-----0^2--3----------------------------------------|
---------------------------------------------------|



----------0---0-0-0----------------2-------2-------|
----------1---1-1-1----------------3-------3-------|
----------0---0-0-0----------------2-------2-------|
----------2---2-2-2--0^2---0-------0-------0-------|
-----0^2--3----------------------------------------|
---------------------------------------------------|



----------0---0-0-0-0-0-------3--------------------|
----------1---1-1-1-1-1-------0---------1^0--------|
----------0---0-0-0-0-0-------0----0---------------|
----------2---2-2-2-0-0-------0----0^2-------------|
-----0^2--3---3-3-3-3-3--2^0--2--------------------|
------------------------------3--------------------|



--x---x----------3------3-3-3-3-------3------------|
--3---3-----------1-----1-1-1-1-------0------------|
--2---2------------0----0-0-0-0-------0------------|
--0---0-------------2---2-2-2-2-------0------------|
---------------------3--3-3-3-3--2^0--2------------|
--------------------------------------3------------|



interludio
--------------------------------------------------------------|
--------------------------------------------------------------|
-----0-----2^0--------2-------0------0---------0~-----------0~|
-----0----------2^0^2---2^0---0------0---------0~--------0~---|
------------------------------2----------0^2---2~-------------|
------------------------------3-------------------------------|



----------------------------|
----------------------------|
--0-------------------------|
--0---------0^2-------------|
--------0^2------0----------|
----3-3---------------------|



------------------8--\-7-/-8-----12-\-11-/-12---15-\-14-/-15---15-17-|
--5--5-\-4-/-5----10-\-9-/-10----13-\-12-/-13---17-\-16-/-17---17----|
--5--5-\-4-/-5-------------------------------------------------------|
---------------------------------------------------------------------|
---------------------------------------------------------------------|
---------------------------------------------------------------------|




parte b
--3--------------------------3--------------------------------|
--0--------------------------0--------------------------------|
--0-----0--2^0--------2------0------0-------------------------|
--0-------------2^0^2---2^0--0------0---------0^2-------------|
--2--------------------------2------------0^2------0----------|
--3--------------------------3--------3-3---------------------|



--------------------------8--\-7-/-8---------12-\-11-/-12-----|
--5-----5-\-4-/-5---------10-\-9-/-10--------13-\-12-/-13-----|
--5-----5-\-4-/-5---------------------------------------------|
--------------------------------------------------------------|
--------------------------------------------------------------|
--------------------------------------------------------------|

[ Tab from: http://www.guitartabs.cc/tabs/k/kravitz_lenny/cant_get_you_off_my_mind_tab.html ]
coro
----------0---0-0-0----------------2-------2-------|
--0-------1---1-1-1----------------3-------3-------|
--0-------0---0-0-0----------------2-------2-------|
--0-------2---2-2-2--0^2---0-------0-------0-------|
-----0^2--3----------------------------------------|
---------------------------------------------------|



----------0---0-0-0----------------2-------2-------|
----------1---1-1-1----------------3-------3-------|
----------0---0-0-0----------------2-------2-------|
----------2---2-2-2--0^2---0-------0-------0-------|
-----0^2--3----------------------------------------|
---------------------------------------------------|



----------0---0-0-0-0-0-------3--------------------|
----------1---1-1-1-1-1-------0---------1^0--------|
----------0---0-0-0-0-0-------0-----0--------------|
----------2---2-2-2-0-0-------0-----0^2------------|
-----0^2--3---3-3-3-3-3--2^0--2--------------------|
------------------------------3--------------------|



--x---x--------3------3-3-3-3-------3--3-3-3-3-3---|
--3---3---------1-----1-1-1-1-------0--0-0-0-0-0---|
--2---2----------0----0-0-0-0-------0--0-0-0-0-0---|
--0---0-----------2---2-2-2-2-------0--0-0-0-0-0---|
-------------------3--3-3-3-3--2^0--2--2-2-2-2-2---|
------------------------------------3--3-3-3-3-3---|



parte c
--6--6-6-6-6------|---7---7--7--7--7-----------|
--8--8-8-8-8------|---8---8--8--8--7-----------|
--8--8-8-8-8------|---7---7--7--7--8-----------|
--8--8-8-8-8------|---9---9--9--9--9-----------|
--6--6-6-6-6------|---10--10-10-10-10----------|
------------------|----------------------------|



--6--6-6-6-6------|------------7----------------7---------|
--8--8-8-8-8------|--------8-----8---8-------8----8---8---|
--8--8-8-8-8------|------7---7-----7-------7---7----7-----|
--8--8-8-8-8------|---------------------------------------|
--6--6-6-6-6------|---10~---------------9-----------------|
------------------|---------------------------------------|



------------7-----7-----------5---|
--------8-----8-----------5-------|
------7---7-----7-------5---5-----|
----------------------------------|
---8-----------------7------------|
--------------------(8)-----------|

------------------------------------------------------------------



solo
---------------------------------------------------------------|
----------------------------15---------15----------------------|
--------------12--14--14b16-----14b16------(16)r14^12-14b16----|
----9/12--14---------------------------------------------------|
---------------------------------------------------------------|
---------------------------------------------------------------|



--------------------------------------------------|
---15b17--15-12-15--------------------------------|
-------------------14v~---------14-14-14----------|
------------------------14-14v~----------14v~-----|
--------------------------------------------------|
--------------------------------------------------|



-------------------12-------------------------------------|
----------------12-----15b17r15b17r15~---17b20r17b20------|
-------12-14b16-------------------------------------------|
--9/14----------------------------------------------------|
----------------------------------------------------------|
----------------------------------------------------------|



---17b19r17^15-17-15--------------------------------------|
-----------------------15/17-20^17/20-22-pb(24)r22^20-22~-|
----------------------------------------------------------|
----------------------------------------------------------|
----------------------------------------------------------|
----------------------------------------------------------|



-----17-----------17---17-19-----------------------|
----x--17-20b22--x--17-------20b22~~----20b22R~~~--|
---0------------0----------------------------------|
---------------------------------------------------|
---------------------------------------------------|
---------------------------------------------------|


-----------------------------------------------------------------

coro
----------0---0-0-0----------------2-------2-------|
--0-------1---1-1-1----------------3-------3-------|
--0-------0---0-0-0----------------2-------2-------|
--0-------2---2-2-2--0^2---0-------0-------0-------|
-----0^2--3----------------------------------------|
---------------------------------------------------|



----------0---0-0-0----------------2-------2-------|
----------1---1-1-1----------------3-------3-------|
----------0---0-0-0----------------2-------2-------|
----------2---2-2-2--0^2---0-------0-------0-------|
-----0^2--3----------------------------------------|
---------------------------------------------------|



----------0---0-0-0-0-0-------3--------------------|
----------1---1-1-1-1-1-------0----0-----1^0-------|
----------0---0-0-0-0-0-------0----0---------------|
----------2---2-2-2-0-0-------0------0^2-----------|
-----0^2--3---3-3-3-3-3--2^0--2--------------------|
------------------------------3--------------------|



--x---x----------3------3-3-3-3-------3------------|
--3---3-----------1-----1-1-1-1-------0---0--------|
--2---2------------0----0-0-0-0-------0---0-2^0----|
--0---0-------------2---2-2-2-2-------0---0--------|
---------------------3--3-3-3-3--2^0--2------------|
--------------------------------------3------------|



--x---x----------3------3-3-3-3-------3~~~---------|
--3---3-----------1-----1-1-1-1-------0~~~---------|
--2---2------------0----0-0-0-0-------0~~~---------|
--0---0-------------2---2-2-2-2-------0~~~---------|
---------------------3--3-3-3-3--2^0--2~~~---------|
--------------------------------------3~~~---------|


guitarra acustica
--3--3--3~~~~~~~~~~~~~~~~~~~~--------------------||
--0--1--0~~~~~~~~~~~~~~~~~~~~--------------------||
-----0--0---2---0~~~~~~~~~~~~--------------------||
-------------------------------------------------||
-------------------------------------------------||
-------------------------------------------------||



|-------------------------------------------------------------------|
|dudas, comentarios o sujerencias? escribeme: martinlfranco@msn.com |
|guadalajara jalisco mexico.                                        |
|-------------------------------------------------------------------|


Comments