Kravitz Lenny - California Chords & Tabs

 

California Chords & Tabs

Kravitz Lenny Chords & Tabs

Version: 1 Type: Tab 0 ratings
1 star 2 stars 3 stars 4 stars 5 stars
comments

California Tab

#----------------------------------PLEASE NOTE---------------------------------#
#This file is the author's own work and represents their interpretation of the #
#song. You may only use this file for private study, scholarship, or research. #
#------------------------------------------------------------------------------#

Artist: Lenny Kravitz
Song: California
Album: Baptism

Listen the song before playing - it is realy helping.

At first play this riff two times: (Intro)

----------------------------------------------------------------------------|
----------------------------------------------------------------------------|
-------------------------------------------------x-5-5---4-4-4--------------|
-2-2-2-2-2-2-2-2-6-6-6-6-6-6-6-6-7-7-7-7-7-7-7-7-x-5-5---4-4-4--------------|
-2-2-2-2-2-2-2-2-6-6-6-6-6-6-6-6-7-7-7-7-7-7-7-7-x-3-3---2-2-2--------------|
-0-0-0-0-0-0-0-0-4-4-4-4-4-4-4-4-5-5-5-5-5-5-5-5----------------------------|


Now he starts to sing...........


-----------------------------------------------------------------------------|
-----------------------------------------------------------------------------|
--------------------------------------------------x-5-5---4-4-4--------------|
-2-2-2-2-2-2-2-2--6-6-6-6-6-6-6-6-7-7-7-7-7-7-7-7-x-5-5---4-4-4--------------|
-2-2-2-2-2-2-2-2--6-6-6-6-6-6-6-6-7-7-7-7-7-7-7-7-x-3-3---2-2-2--------------|
-0-0-0-0-0-0-0-0--4-4-4-4-4-4-4-4-5-5-5-5-5-5-5-5----------------------------|


Well, I hope you got the idea.............

Play this riff when he starts to sing "california..."

---------------------------------|
---------------------------------|
-----------------4-4-4-4-4-4-4-4-|
-4-4-4-4-4-4-4-4-4-4-4-4-4-4-4-4-|
-4-4-4-4-4-4-4-4-2-2-2-2-2-2-2-2-|
-2-2-2-2-2-2-2-2-----------------|

You play this riff when he sings "califonia love..."

---------------------------------|
---------------------------------|
-6-6-6-6-6-6-6-6-7-7-7-7-7-7-7-7-|
-6-6-6-6-6-6-6-6-7-7-7-7-7-7-7-7-|
-4-4-4-4-4-4-4-4-5-5-5-5-5-5-5-5-|
---------------------------------|

Play this riff while he sings this:


[ Tab from: http://www.guitartabs.cc/tabs/k/kravitz_lenny/california_tab.html ]
----------------------------------------------------------------------------|
----------------------------------------------------------------------------|
----------------------------------------------------------------------------|
-2-------------2-----------2--5-5-5-5-5-5-5-5-7-7-7-7-7-7-7-7---------------|
-2-------------2-----------2--5-5-5-5-5-5-5-5-7-7-7-7-7-7-7-7---------------|
-0-0-b3-0-b3-0-0-0-b3-0-b3-0--3-3-3-3-3-3-3-3-5-5-5-5-5-5-5-5---------------|


Here is the solo....not so hard :)

-----------------------------------------------------------------------------|
-----------------------14-16-------------------------------------------------|
--9/16-16-16-16-----16-------16--16-16--16-14-16-14-13-11-----9-11bp9-11-9---|
----------------------------------------------------------11-----------------|
-----------------------------------------------------------------------------|
-----------------------------------------------------------------------------|

-----------------------------------------------------------------------------|
-----------------------14-16-------------------------------------------------|
--9/16-16-16-16-----16-------16--16-16--16-14-16-14-13-11-----9-11bp9-11-9---|
----------------------------------------------------------11-----------------|
-----------------------------------------------------------------------------|
-----------------------------------------------------------------------------|

-15p12----(7x)---15p14p12-15p14p12------------------------------------------|
------12----------------------------15p14p12-15p14p12------12-----12-----12-|
-------------------------------------------------------14b----14b----14b----|
----------------------------------------------------------------------------|
----------------------------------------------------------------------------|
----------------------------------------------------------------------------|

----------------12-15fb-15--12-15b-12---------------------------------------|
-----12------12-----------------------14-15-15b-15--12-14-12----------------|
-14b----14b--------------------------------------------------14-13h14-13-/0-|
----------------------------------------------------------------------------|
----------------------------------------------------------------------------|
----------------------------------------------------------------------------|


Play it in the end - it is the last chord



---
---
---
-2-
-2-

Ending: 
---
---
---
-2-
-2-
-0-

GREAT SONG - GREAT ARTIST - LENNY KRAVITZ - CALIFORNIA - BAPTISM
TABBED BY THE EAGLE: yonatanva@walla.co.il 
 
-0-
Comments