Kravitz Lenny - American Woman Chords & Tabs

 

American Woman Chords & Tabs

Kravitz Lenny Chords & Tabs

Version: 4 Type: Tab 1 rating
1 star 2 stars 3 stars 4 stars 5 stars
comments

American Woman Tab

   
#----------------------------------PLEASE NOTE---------------------------------#
#This file is the author's own work and represents their interpretation of the #
#song. You may only use this file for private study, scholarship, or research. #
#------------------------------------------------------------------------------#

ARTIST: LENNY KRAVITZ
SONG: AMERICAN WOMAN
TABBED BY: JOHN LEADMAN


Key:

h- hammer-on
p- pull-off
x- mute the string


w/distortion
       C5 C5
e-------------------|--------------|-------------------|------------------------|
B-------------------|--------------|-------------------|--x-x-8h10p8------------|
G---5-5-5-5-5---5-5-|--------------|---5-5-5-5-5---5-5-|--x-x-8h10p8------------| 
D---5-5-5-5-5---5-5-|-------0------|---5-5-5-5-5---5-5-|------------------------|
A---3-3-3-3-3---3-3-|--------------|---3-3-3-3-3---3-3-|------------------------|
E-------------------|--3h6---------|-------------------|------------------------|


       C5 C5
e-------------------|--------------|-------------------|------------------------|
B-------------------|--------------|-------------------|--x-x-8h10p8------------|
G---5-5-5-5-5---5-5-|--------------|---5-5-5-5-5---5-5-|--x-x-8h10p8------------| 
D---5-5-5-5-5---5-5-|-------0------|---5-5-5-5-5---5-5-|------------------------|
A---3-3-3-3-3---3-3-|--------------|---3-3-3-3-3---3-3-|------------------------|
E-------------------|--3h6---------|-------------------|------------------------|

       


       C5 C5
e-------------------|--------------|-------------------|------------------------|
B-------------------|--------------|-------------------|--x-x-8h10p8------------|
G---5-5-5-5-5---5-5-|--------------|---5-5-5-5-5---5-5-|--x-x-8h10p8------------| 
D---5-5-5-5-5---5-5-|-------0------|---5-5-5-5-5---5-5-|------------------------|
A---3-3-3-3-3---3-3-|--------------|---3-3-3-3-3---3-3-|------------------------|
E-------------------|--3h6---------|-------------------|------------------------|

                                          

       C5 C5
e-------------------|--------------|-------------------|------------------------|
B-------------------|--------------|-------------------|--x-x-8h10p8------------|
G---5-5-5-5-5---5-5-|--------------|---5-5-5-5-5---5-5-|--x-x-8h10p8------------| 
D---5-5-5-5-5---5-5-|-------0------|---5-5-5-5-5---5-5-|------------------------|
A---3-3-3-3-3---3-3-|--------------|---3-3-3-3-3---3-3-|------------------------|
E-------------------|--3h6---------|-------------------|------------------------|

 

      
e--------------------|--------------|--------------------|------------------------|
B--------------------|--------------|--------------------|------------------------|
G--------------------|--------------|--------------------|------------------------| 
D--------------------|--------------|--------------------|------------------------|
A--------------------|--------------|--------------------|------------------------|
E--------------------|--------------|--------------------|------------------------|

       C5 C5
e-------------------|--------------|-------------------|------------------------|
B-------------------|--------------|-------------------|--x-x-8h10p8------------|
G---5-5-5-5-5---5-5-|--------------|---5-5-5-5-5---5-5-|--x-x-8h10p8------------| 
D---5-5-5-5-5---5-5-|-------0------|---5-5-5-5-5---5-5-|------------------------|
A---3-3-3-3-3---3-3-|--------------|---3-3-3-3-3---3-3-|------------------------|
E-------------------|--3h6---------|-------------------|------------------------|



       C5 C5
e-------------------|--------------|-------------------|------------------------|
B-------------------|--------------|-------------------|--x-x-8h10p8------------|
G---5-5-5-5-5---5-5-|--------------|---5-5-5-5-5---5-5-|--x-x-8h10p8------------| 
D---5-5-5-5-5---5-5-|-------0------|---5-5-5-5-5---5-5-|------------------------|
A---3-3-3-3-3---3-3-|--------------|---3-3-3-3-3---3-3-|------------------------|
E-------------------|--3h6---------|-------------------|------------------------|



       
e-----------------|--------------|----------|-----------------|--------------|
B-----------------|--------------|----------|-----------------|--------------|
G---5---5-5-------|---5---5-5----|----------|---5---5-5-------|---5---5-5----| 
D---5---5-5-------|---5---5-5----|-------0--|---5---5-5-------|---5---5-5----|
A---3---3-3-------|---3---3-3----|----------|---3---3-3-------|---3---3-3----|
E-----------------|--------------|--3h6-----|---------------- |--------------|

       C5 C5
e-------------------|--------------|-------------------|------------------------|
B-------------------|--------------|-------------------|--x-x-8h10p8------------|
G---5-5-5-5-5---5-5-|--------------|---5-5-5-5-5---5-5-|--x-x-8h10p8------------| 
D---5-5-5-5-5---5-5-|-------0------|---5-5-5-5-5---5-5-|------------------------|
A---3-3-3-3-3---3-3-|--------------|---3-3-3-3-3---3-3-|------------------------|
E-------------------|--3h6---------|-------------------|------------------------|



       C5 C5
e-------------------|--------------|-------------------|------------------------|
B-------------------|--------------|-------------------|--x-x-8h10p8------------|
G---5-5-5-5-5---5-5-|--------------|---5-5-5-5-5---5-5-|--x-x-8h10p8------------| 
D---5-5-5-5-5---5-5-|-------0------|---5-5-5-5-5---5-5-|------------------------|
A---3-3-3-3-3---3-3-|--------------|---3-3-3-3-3---3-3-|------------------------|
E-------------------|--3h6---------|-------------------|------------------------|




e--------------------|--------------|--------------------|------------------------|
B--------------------|--------------|--------------------|------------------------|
G--------------------|--------------|--------------------|------------------------| 
D--------------------|--------------|--------------------|------------------------|
A--------------------|--------------|--------------------|------------------------|
E--------------------|--------------|--------------------|------------------------|


       C5 C5
e-------------------|--------------|-------------------|------------------------|
B-------------------|--------------|-------------------|--x-x-8h10p8------------|
G---5-5-5-5-5---5-5-|--------------|---5-5-5-5-5---5-5-|--x-x-8h10p8------------| 
D---5-5-5-5-5---5-5-|-------0------|---5-5-5-5-5---5-5-|------------------------|
A---3-3-3-3-3---3-3-|--------------|---3-3-3-3-3---3-3-|------------------------|
E-------------------|--3h6---------|-------------------|------------------------


       C5 C5
e-------------------|--------------|-------------------|------------------------|
B-------------------|--------------|-------------------|--x-x-8h10p8------------|
G---5-5-5-5-5---5-5-|--------------|---5-5-5-5-5---5-5-|--x-x-8h10p8------------| 
D---5-5-5-5-5---5-5-|-------0------|---5-5-5-5-5---5-5-|------------------------|
A---3-3-3-3-3---3-3-|--------------|---3-3-3-3-3---3-3-|------------------------|
E-------------------|--3h6---------|-------------------|------------------------|



   
~The solo is played over this next part. This guitar is played in the background.
 I will post the tab for the solo later. If you would like to get it sooner, email me. 
Also, notice that this part, for the first two riffs,  is the same main riff, played one
 fret lower 
   
       B5           B5
e-------------------|--------------|-------------------|------------------------|
B-------------------|--------------|-------------------|--x-x-7h9p7-------------|
G---4-4-4-4-4---4-4-|--------------|---4-4-4-4-4---4-4-|--x-x-7h9p7-------------| 
D---4-4-4-4-4---4-4-|--------------|---4-4-4-4-4---4-4-|------------------------|
A---2-2-2-2-2---2-2-|------4-------|---2-2-2-2-2---2-2-|------------------------|
E-------------------|--2h5---------|-------------------|------------------------|


       B5 B5
e-------------------|--------------|-------------------|------------------------|
B-------------------|--------------|-------------------|--x-x-7h9p7-------------|
G---4-4-4-4-4---4-4-|--------------|---4-4-4-4-4---4-4-|--x-x-7h9p7-------------| 
D---4-4-4-4-4---4-4-|--------------|---4-4-4-4-4---4-4-|------------------------|
A---2-2-2-2-2---2-2-|------4-------|---2-2-2-2-2---2-2-|------------------------|
E-------------------|--2h5---------|-------------------|------------------------|



       C5 C5
e-------------------|--------------|-------------------|------------------------|
B-------------------|--------------|-------------------|--x-x-8h10p8------------|
G---5-5-5-5-5---5-5-|--------------|---5-5-5-5-5---5-5-|--x-x-8h10p8------------| 
D---5-5-5-5-5---5-5-|-------0------|---5-5-5-5-5---5-5-|------------------------|
A---3-3-3-3-3---3-3-|--------------|---3-3-3-3-3---3-3-|------------------------|
E-------------------|--3h6---------|-------------------|------------------------|

  
     C5 C5
e-------------------|--------------|-------------------|------------------------|
B-------------------|--------------|-------------------|--x-x-8h10p8------------|
G---5-5-5-5-5---5-5-|--------------|---5-5-5-5-5---5-5-|--x-x-8h10p8------------| 
D---5-5-5-5-5---5-5-|-------0------|---5-5-5-5-5---5-5-|------------------------|
A---3-3-3-3-3---3-3-|--------------|---3-3-3-3-3---3-3-|------------------------|
E-------------------|--3h6---------|-------------------|------------------------|

[ Tab from: http://www.guitartabs.cc/tabs/k/kravitz_lenny/american_woman_tab_ver_4.html ]
***This     is     where     the     solo     comes     to     an     end.***
       
C5 C5
e-------------------|--------------|-------------------|------------------------|
B-------------------|--------------|-------------------|--x-x-8h10p8------------|
G---5-5-5-5-5---5-5-|--------------|---5-5-5-5-5---5-5-|--x-x-8h10p8------------| 
D---5-5-5-5-5---5-5-|-------0------|---5-5-5-5-5---5-5-|------------------------|
A---3-3-3-3-3---3-3-|--------------|---3-3-3-3-3---3-3-|------------------------|
E-------------------|--3h6---------|-------------------|------------------------|



       C5 C5
e-------------------|--------------|-------------------|------------------------|
B-------------------|--------------|-------------------|--x-x-8h10p8------------|
G---5-5-5-5-5---5-5-|--------------|---5-5-5-5-5---5-5-|--x-x-8h10p8------------| 
D---5-5-5-5-5---5-5-|-------0------|---5-5-5-5-5---5-5-|------------------------|
A---3-3-3-3-3---3-3-|--------------|---3-3-3-3-3---3-3-|------------------------|
E-------------------|--3h6---------|-------------------|------------------------|

 

       C5 C5
e-------------------|--------------|-------------------|------------------------|
B-------------------|--------------|-------------------|--x-x-8h10p8------------|
G---5-5-5-5-5---5-5-|--------------|---5-5-5-5-5---5-5-|--x-x-8h10p8------------| 
D---5-5-5-5-5---5-5-|-------0------|---5-5-5-5-5---5-5-|------------------------|
A---3-3-3-3-3---3-3-|--------------|---3-3-3-3-3---3-3-|------------------------|
E-------------------|--3h6---------|-------------------|------------------------|



       C5 C5
e-------------------|--------------|-------------------|------------------------|
B-------------------|--------------|-------------------|--x-x-8h10p8------------|
G---5-5-5-5-5---5-5-|--------------|---5-5-5-5-5---5-5-|--x-x-8h10p8------------| 
D---5-5-5-5-5---5-5-|-------0------|---5-5-5-5-5---5-5-|------------------------|
A---3-3-3-3-3---3-3-|--------------|---3-3-3-3-3---3-3-|------------------------|
E-------------------|--3h6---------|-------------------|------------------------|



e------------------------------|-------------------|---------------------------|
B------------------------------|-------------------|---------------------------|
G------------------------------|---5-5-5-5---5-5---|---------------------------| 
D------------------------------|---5-5-5-5---5-5---|---------------------------|
A------------------------------|---3-3-3-3---3-3---|---------------------------|
E------------------------------|-------------------|---------------------------|


       C5 
e-------------------|
B-------------------|
G---5-5-5-5-5---5-5-|
D---5-5-5-5-5---5-5-|
A---3-3-3-3-3---3-3-|
E-------------------|



       C5 C5
e-------------------|--------------|-------------------|------------------------|
B-------------------|--------------|-------------------|--x-x-8h10p8------------|
G---5-5-5-5-5---5-5-|--------------|---5-5-5-5-5---5-5-|--x-x-8h10p8------------| 
D---5-5-5-5-5---5-5-|-------0------|---5-5-5-5-5---5-5-|------------------------|
A---3-3-3-3-3---3-3-|--------------|---3-3-3-3-3---3-3-|------------------------|
E-------------------|--3h6---------|-------------------|------------------------|



       
C5 C5
e--------------------|--------------|--------------------|------------------------|
B--------------------|--------------|--------------------|--x-x-8h10p8------------|
G---5-5-5-5-5---5-5--|--------------|---5-5-5-5-5---5-5--|--x-x-8h10p8------------| 
D---5-5-5-5-5---5-5--|-------0------|---5-5-5-5-5---5-5--|------------------------|
A---3-3-3-3-3---3-3--|--------------|---3-3-3-3-3---3-3--|------------------------|
E--------------------|--3h6---------|--------------------|------------------------|



       C5 C5
e-------------------|--------------|-------------------|------------------------|
B-------------------|--------------|-------------------|--x-x-8h10p8------------|
G---5-5-5-5-5---5-5-|--------------|---5-5-5-5-5---5-5-|--x-x-8h10p8------------| 
D---5-5-5-5-5---5-5-|-------0------|---5-5-5-5-5---5-5-|------------------------|
A---3-3-3-3-3---3-3-|--------------|---3-3-3-3-3---3-3-|------------------------|
E-------------------|--3h6---------|-------------------|------------------------|



       
C5 C5
e-------------------|--------------|-------------------|------------------------|
B-------------------|--------------|-------------------|--x-x-8h10p8------------|
G---5-5-5-5-5---5-5-|--------------|---5-5-5-5-5---5-5-|--x-x-8h10p8------------| 
D---5-5-5-5-5---5-5-|-------0------|---5-5-5-5-5---5-5-|------------------------|
A---3-3-3-3-3---3-3-|--------------|---3-3-3-3-3---3-3-|------------------------|
E-------------------|--3h6---------|-------------------|------------------------|

        
C5            D5 C5                          C5         D5 C5
e-----------------|-------------|-----------------|-------------|
B-----------------|-------------|-----------------|-------------|
G---5-x-x-x-x-7-5-|-x-x-x-x-x-x-|-5-x-x-x-x-7-5---|-x-x-x-x-x-x-|
D---5-x-x-x-x-7-5-|-x-x-x-x-x-x-|-5-x-x-x-x-7-5---|-x-x-x-x-x-x-|
A---3-x-x-x-x-5-3-|-x-x-x-x-x-x-|-3-x-x-x-x-5-3---|-x-x-x-x-x-x-|
E-----------------|-------------|-----------------|-------------|



        C5            D5 C5                          C5            D5 C5
e-----------------|-------------|-----------------|-------------|
B-----------------|-------------|-----------------|-------------|
G---5-x-x-x-x-7-5-|-x-x-x-x-x-x-|-5-x-x-x-x-7-5---|-x-x-x-x-x-x-|
D---5-x-x-x-x-7-5-|-x-x-x-x-x-x-|-5-x-x-x-x-7-5---|-x-x-x-x-x-x-|
A---3-x-x-x-x-5-3-|-x-x-x-x-x-x-|-3-x-x-x-x-5-3---|-x-x-x-x-x-x-|
E-----------------|-------------|-----------------|-------------|


        C5            D5 C5                          C5            D5 C5
e-----------------|-------------|-----------------|-------------|
B-----------------|-------------|-----------------|-------------|
G---5-x-x-x-x-7-5-|-x-x-x-x-x-x-|-5-x-x-x-x-7-5---|-x-x-x-x-x-x-|
D---5-x-x-x-x-7-5-|-x-x-x-x-x-x-|-5-x-x-x-x-7-5---|-x-x-x-x-x-x-|
A---3-x-x-x-x-5-3-|-x-x-x-x-x-x-|-3-x-x-x-x-5-3---|-x-x-x-x-x-x-|
E-----------------|-------------|-----------------|-------------|



        C5            D5 C5                          C5            D5 C5
e-----------------|-------------|-----------------|-------------|
B-----------------|-------------|-----------------|-------------|
G---5-x-x-x-x-7-5-|-x-x-x-x-x-x-|-5-x-x-x-x-7-5---|-x-x-x-x-x-x-|
D---5-x-x-x-x-7-5-|-x-x-x-x-x-x-|-5-x-x-x-x-7-5---|-x-x-x-x-x-x-|
A---3-x-x-x-x-5-3-|-x-x-x-x-x-x-|-3-x-x-x-x-5-3---|-x-x-x-x-x-x-|
E-----------------|-------------|-----------------|-------------|




        C5            D5 C5                          C5            D5 C5
e-----------------|-------------|-----------------|-------------|
B-----------------|-------------|-----------------|-------------|
G---5-x-x-x-x-7-5-|-x-x-x-x-x-x-|-5-x-x-x-x-7-5---|-x-x-x-x-x-x-|
D---5-x-x-x-x-7-5-|-x-x-x-x-x-x-|-5-x-x-x-x-7-5---|-x-x-x-x-x-x-|
A---3-x-x-x-x-5-3-|-x-x-x-x-x-x-|-3-x-x-x-x-5-3---|-x-x-x-x-x-x-|
E-----------------|-------------|-----------------|-------------|

..

        C5            D5 C5                          C5            D5 C5
e-----------------|-------------|-----------------|-------------|
B-----------------|-------------|-----------------|-------------|
G---5-x-x-x-x-7-5-|-x-x-x-x-x-x-|-5-x-x-x-x-7-5---|-x-x-x-x-x-x-|
D---5-x-x-x-x-7-5-|-x-x-x-x-x-x-|-5-x-x-x-x-7-5---|-x-x-x-x-x-x-|
A---3-x-x-x-x-5-3-|-x-x-x-x-x-x-|-3-x-x-x-x-5-3---|-x-x-x-x-x-x-|
E-----------------|-------------|-----------------|-------------|
.

        C5            D5 C5                          C5            D5 C5
e-----------------|-------------|-----------------|-------------|
B-----------------|-------------|-----------------|-------------|
G---5-x-x-x-x-7-5-|-x-x-x-x-x-x-|-5-x-x-x-x-7-5---|-x-x-x-x-x-x-|
D---5-x-x-x-x-7-5-|-x-x-x-x-x-x-|-5-x-x-x-x-7-5---|-x-x-x-x-x-x-|
A---3-x-x-x-x-5-3-|-x-x-x-x-x-x-|-3-x-x-x-x-5-3---|-x-x-x-x-x-x-|
E-----------------|-------------|-----------------|-------------|



        C5            D5 C5                          C5            D5 C5
e-----------------|-------------|-----------------|-------------|
B-----------------|-------------|-----------------|-------------|
G---5-x-x-x-x-7-5-|-x-x-x-x-x-x-|-5-x-x-x-x-7-5---|-x-x-x-x-x-x-|
D---5-x-x-x-x-7-5-|-x-x-x-x-x-x-|-5-x-x-x-x-7-5---|-x-x-x-x-x-x-|
A---3-x-x-x-x-5-3-|-x-x-x-x-x-x-|-3-x-x-x-x-5-3---|-x-x-x-x-x-x-|
E-----------------|-------------|-----------------|-------------|



        C5            D5 C5                          C5            D5 C5
e-----------------|-------------|-----------------|-------------|
B-----------------|-------------|-----------------|-------------|
G---5-x-x-x-x-7-5-|-x-x-x-x-x-x-|-5-x-x-x-x-7-5---|-x-x-x-x-x-x-|
D---5-x-x-x-x-7-5-|-x-x-x-x-x-x-|-5-x-x-x-x-7-5---|-x-x-x-x-x-x-|
A---3-x-x-x-x-5-3-|-x-x-x-x-x-x-|-3-x-x-x-x-5-3---|-x-x-x-x-x-x-|
E-----------------|-------------|-----------------|-------------|
.


        C5            D5 C5                          C5            D5 C5
e-----------------|-------------|-----------------|-------------|
B-----------------|-------------|-----------------|-------------|
G---5-x-x-x-x-7-5-|-x-x-x-x-x-x-|-5-x-x-x-x-7-5---|-x-x-x-x-x-x-|
D---5-x-x-x-x-7-5-|-x-x-x-x-x-x-|-5-x-x-x-x-7-5---|-x-x-x-x-x-x-|
A---3-x-x-x-x-5-3-|-x-x-x-x-x-x-|-3-x-x-x-x-5-3---|-x-x-x-x-x-x-|
E-----------------|-------------|-----------------|-------------|


        C5            D5 C5                          C5            D5 C5
e-----------------|-------------|-----------------|-------------|
B-----------------|-------------|-----------------|-------------|
G---5-x-x-x-x-7-5-|-x-x-x-x-x-x-|-5-x-x-x-x-7-5---|-x-x-x-x-x-x-|
D---5-x-x-x-x-7-5-|-x-x-x-x-x-x-|-5-x-x-x-x-7-5---|-x-x-x-x-x-x-|
A---3-x-x-x-x-5-3-|-x-x-x-x-x-x-|-3-x-x-x-x-5-3---|-x-x-x-x-x-x-|
E-----------------|-------------|-----------------|-------------|






                                      
Comments