Kravitz Lenny - Again Chords & Tabs

 

Again Chords & Tabs

Kravitz Lenny Chords & Tabs

Version: 2 Type: Tab 0 ratings
1 star 2 stars 3 stars 4 stars 5 stars
comments

Again Tab

Tabbed By Tamir Haber
haber_t@netvision.net.il

Oasis - Supersonic

This is what noel does at the end of supersonic at live gigs:


A little part that repeats itself:

E-------------------------------------
B-----17b19b17---14-------------------
G--------------------16b18r16----14---
D-------------------------------------
A-------------------------------------
E-------------------------------------

And at the end:
[ Tab from: http://www.guitartabs.cc/tabs/k/kravitz_lenny/again_tab_ver_2.html ]
E--------------------------------------
B-----17b19b17---14--------------------
G--------------------16b18r16---14-----
D-----------------------------------16-
A--------------------------------------
E--------------------------------------

Up we go:

E------------------------------------------------
B------------------------------19----------------
G---------------14h16--16b18-------18b16--14-----
D---------14h16-------------------------------16-
A---14h16----------------------------------------
E------------------------------------------------

Enjoy
Comments