Kravitz Lenny - Again Solo Chords & Tabs

 

Again Solo Chords & Tabs

Kravitz Lenny Chords & Tabs

Version: 3 Type: Tab 0 ratings
1 star 2 stars 3 stars 4 stars 5 stars
comments

Again Solo Tab

e--------------------------------------------------------
b-----------------------19-17-15-14-15-17-14-10h12-10h12-
g-----18-18-18-18-16-14----------------------------------
d--14----------------------------------------------------
a--------------------------------------------------------
e--------------------------------------------------------
[ Tab from: http://www.guitartabs.cc/tabs/k/kravitz_lenny/again_solo_tab_ver_3.html ]
e------------------------19-17-21-21-19-17h19-17--21-22-21-19-17h19-17--
b---10-12-14-15-17-19-17------------------------------------------------
g-9---------------------------------------------------------------------
d-----------------------------------------------------------------------
a-----------------------------------------------------------------------
e-----------------------------------------------------------------------
Comments