Kravitz Lenny - Again Intro Chords & Tabs

 

Again Intro Chords & Tabs

Kravitz Lenny Chords & Tabs

Version: 1 Type: Tab 0 ratings
1 star 2 stars 3 stars 4 stars 5 stars
comments

Again Intro Tab

   
#----------------------------------PLEASE NOTE---------------------------------#
#This file is the author's own work and represents their interpretation of the #
#song. You may only use this file for private study, scholarship, or research. #
#------------------------------------------------------------------------------#

Lenny Kravitz: Again

Transcribed by: Mark Ramos (flamepower8@email.com)
Here is my tab that you will enjoy 2 play
Cause other tabs give me a "head ache"....ouchhhhhh!!!!=( "sakit pare"
that's why I fixed it ... and you will notice that this one is easy 2 understand
hehehehehehehe!!!!!!!

(Intro)
     A                   F#m                E                   D

E----------O---------|---------O---------|---------O---------|--------Oh2-O-------|
B------O-----Oh2-O---|-----O-----Oh2-O---|-----O-----Oh2-O---|----O-------Oh2-O---|
G----2---2---------2-|---2---2---------2-|---2---2---------2-|--2---2-----------2-|
D--------------------|-------------------|-----------------O-|--------------------|
A--O-----------------|-------------------|-------------------|--------------------|
E--------------------|-2-----------------|-O-----------------|--------------------|


Verse 1:
    D             E             F#m      
E--------------|-------------|---------------|
B--------------|-------------|---------------|
G-----7--x--x--|---9--x--x---|---11--x--x----|
D-----7--x--x--|---9--x--x---|---11--x--x----|
A-----5--x--x--|---7--x--x---|----9--x--x----|
E--------------|-------------|---------------|

Chorus:

 A                   F#m                E                   D
[ Tab from: http://www.guitartabs.cc/tabs/k/kravitz_lenny/again_intro_tab.html ]
E----------O---------|---------O---------|---------O---------|--------Oh2-O---------|
B------O-----Oh2-O---|-----O-----Oh2-O---|-----O-----Oh2-O---|-----O--------Oh2-O---|
G----2---2---------2-|---2---2---------2-|---2---2---------2-|---2---2--------------|
D--------------------|-------------------|------------------ |-0--------------------|
A--O-----------------|-------------------|-------------------|----------------------|
E--------------------|-2-----------------|-O-----------------|----------------------|

Repeat Verse I:
Repeat Chorus:
Bridge:

Solo:

E----------------------------14b---12--10-9-10--12--9-h10p9-------------------------|
B----------14--14b----12------------------------------------10-h12p10---------------|
G----/10------------------14--------------------------------------------------------|
D-----------------------------------------------------------------------------------|
A-----------------------------------------------------------------------------------|
E-----------------------------------------------------------------------------------|
  For ever...

E---------------9h10h12-12----12/14--12----17/19-17-----21-b21-21--19-17h19--17-----|
B--12---9h10h12---------------------------------------------------------------------|
G-----------------------------------------------------------------------------------|
D-----------------------------------------------------------------------------------|
A-----------------------------------------------------------------------------------|
E-----------------------------------------------------------------------------------|

Note:If you have 22nd fret from your guitar,it is better not to bend!

E---21--b21-21--19-17h19--17--------------------------------------------------------|
B-----------------------------------------------------------------------------------|
G-----------------------------------------------------------------------------------|
D-------------------------------12-h14p12h14p12h14p12h14p12h14p12h14p12-------------|
A-----------------------------------------------------------------------------------|
E-----------------------------------------------------------------------------------|


Repeat Chorus
Comments