Kravitz Lenny - Again Intro-solo Chords & Tabs

 

Again Intro-solo Chords & Tabs

Kravitz Lenny Chords & Tabs

Version: 1 Type: Tab 0 ratings
1 star 2 stars 3 stars 4 stars 5 stars
comments

Again Intro-solo Tab

   
#----------------------------------PLEASE NOTE---------------------------------#
#This file is the author's own work and represents their interpretation of the #
#song. You may only use this file for private study, scholarship, or research. #
#------------------------------------------------------------------------------#

Again
                        Lenny Kravitz

Intro:
     A                   F#m                E                   D

E----------O---------|---------O---------|---------O---------|--------Oh2-O-------|
B------O-----Oh2-O---|-----O-----Oh2-O---|-----O-----Oh2-O---|----O-------Oh2-O---|
G----2---2---------2-|---2---2---------2-|---2---2---------2-|--2---2-----------2-|
D--------------------|-------------------|-----------------O-|--------------------|
A--O-----------------|-------------------|-------------------|--------------------|
E--------------------|-2-----------------|-O-----------------|--------------------|


Solo:
[ Tab from: http://www.guitartabs.cc/tabs/k/kravitz_lenny/again_intro_solo_tab.html ]
E----------------------------14b---12--10-9-10--12--9-h10p9-------------------------|
B----------14--14b----12------------------------------------10-h12p10---------------|
G----/10------------------14--------------------------------------------------------|
D-----------------------------------------------------------------------------------|
A-----------------------------------------------------------------------------------|
E-----------------------------------------------------------------------------------|
  For ever...

E---------------9h10h12-12----12/14--12----17/19-17-----21-b21-21--19-17h19--17-----|
B--12---9h10h12---------------------------------------------------------------------|
G-----------------------------------------------------------------------------------|
D-----------------------------------------------------------------------------------|
A-----------------------------------------------------------------------------------|
E-----------------------------------------------------------------------------------|

Note:If you have 22nd fret from your guitar,it is better not to bend!

E---21--b21-21--19-17h19--17--------------------------------------------------------|
B-----------------------------------------------------------------------------------|
G-----------------------------------------------------------------------------------|
D-------------------------------12-h14p12h14p12h14p12h14p12h14p12h14p12-------------|
A-----------------------------------------------------------------------------------|
E-----------------------------------------------------------------------------------|


Repeat Chorus:


Repeat Chorus after fade..


Pretty easy tab. Hope this is what you need. Thanks to Mark Ramos for
supplying the solo.
TABBED BY DAVE
Comments