Krauss Alison - When You Say Nothing At All Chords & Tabs

 

Krauss Alison Chords & Tabs

Version: 1 Type: Tab 1 rating
1 star 2 stars 3 stars 4 stars 5 stars
comments

When You Say Nothing At All Tab

   
                        Alison Krauss - When You Say Nothing At All
 
INTRO:
    Dsus      A?      G        A     X2
e|----- 0-----------------------------|
B|-----3---------3-------3--------2h3-|
G|----2---------2-------0--------2----|
D|---0---------2-------0--------2-----|
A|0h2---------0----------------0------|
E|--------------------3---------------|    

VERSE:
     Dsus     A?      G        A     X4
e|------0-----------------------------| 
B|-----3---------3-------3--------2h3-|
G|----2---------2-------0--------2----|
D|---0---------2-------0--------2-----|
A|------------0----------------0------|
E|--------------------3---------------|
     It's...amazingyou.........heart
(It's amazing how you, can speak right to my heart.
Without saying a thing, you can light up the dark.)

    G                       D       A       G          A              
e|---------------0-----0--------2---------0-------3----------0-------0-------0-------0-|
B|--------3------2--------------3---------2-------3----------2-------2-------2-------2-|
G|--------0-----2-----2-------2---2-----2-------0----------2---2-------2---2---2-------|
D|------0------2-----2------0---------2-------0----------2-------2-------2-------2-----|
A|----2-------0---------------------0------------------0-----------0---------------0---|
E|--3---------------------------------------3------------------------------------------|
   Try...... never....... What.....hear...don't......thing."   
(Try as I may, I could never explain, what I hear when you don't say a thing)

CHORUS:

Picking Pattern
   D                 A            G               A                D 
e|----2----------------0------------3----------------0----------------2-==|
B|----3----------------2------------3----------------2----------------3---|
G|---2----------------2------------0----------------2----------------2----|
D|--0----------------2------------0----------------2----------------0-----|
A|-0----------------0-----------------------------0----------------0------|
E|-------------------------------3----------------------------------------|
[ Tab from: http://www.guitartabs.cc/tabs/k/krauss_alison/when_you_say_nothing_at_all_tab.html ]
    D             A            G             A                 D       
The smile in your face lets me know that you need me there's a truth in

A          G           A            D             A              G   
eyes sayin youll never leave me the touch of your hands says you catch me 

  A                                G                    Dsus     A?      G        A
e|------0-------0-------0-------0--------3-3-----3-2-------0-----------------------------|
B|------2-------2-------2-------2--------3-3-----3-2------3---------3-------3--------2h3-|
G|----2---2-------2---2---2------------0-----0-----------2---------2-------0--------2----|
D|--2-------2-------2-------2--------0---------0--------0---------2-------0--------2-----|
A|0-----------0---------------0----------------------------------0----------------0------|
E|---------------------------------3-------------------------------------3---------------|
                                           
..fall.............................You..................all
(If ever I fall. You say it best, when you say nothing at all)

VERSE:
     Dsus     A?      G        A     X4
e|------0-----------------------------| 
B|-----3---------3-------3--------2h3-|
G|----2---------2-------0--------2----|
D|---0---------2-------0--------2-----|
A|------------0----------------0------|
E|--------------------3---------------|
    All....long.......hear.....aloud
(All day long I can hear people talking aloud,
But when you hold me near, you can drown out the crowd.

    G                       D       A       G          A              
e|---------------0-----0--------2---------0-------3----------0-------0-------0-------0-|
B|--------3------2--------------3---------2-------3----------2-------2-------2-------2-|
G|--------0-----2-----2-------2---2-----2-------0----------2---2-------2---2---2-------|
D|------0------2-----2------0---------2-------0----------2-------2-------2-------2-----|
A|----2-------0---------------------0------------------0-----------0---------------0---|
E|--3---------------------------------------3------------------------------------------|
    Poor......never.........What....said.....your........mine
Poor Mr. Webster could never define,
What's being said between your heart and mine.)

That's all. You should be able to get it from that. Anyway, Solos later? Maybe.
                                             Ryan Craig
Comments