Kovenant - Spaceman Chords & Tabs

 

Spaceman Chords & Tabs

Kovenant Chords & Tabs

Version: 1 Type: Tab 0 ratings
1 star 2 stars 3 stars 4 stars 5 stars
comments

Spaceman Tab

Song: Spaceman
Artist: The Kovenant
Tabbed By: Pillie (pillie2001@hotmail.com)

RIFF 1
 |1   2   3   4    | 1    2   3   4   |
E|-----------------|------------------|
B|11------11---C-C-|-C-C--9---9-------|
G|10------10---C-C-|-C-C--8---8-------| * 4
D|-8------8----C-C-|-C-C--6---6-------|
A|-8------8----C-C-|-C-C--6---6-------|
E|-8------8----C-C-|-C-C--6---6-------|


RIFF 2
 |1   2   3   4    | 1    2   3   4   |
E|-----------------|------------------|
B|-----------------|------------------|
G|-----------------|------------------|
D|44-----44--------|44------44---*8---| * 4
A|44-----44--------|44------44--------|
E|44-----44--------|44------44--------|


Riff 1
Riff 2

Riff 4
 |1   2   3   4    |
E|-----------------|
B|-----------------|
G|-----------------|
D|-8---------------| * 8
A|-8---------------|
E|-8---------------|


Riff 5
 |1   2      3  4        |
E|-----------------------------|
B|-----------------------------|
G|-----------------------------| * 3
D|-8888-8-8--12----------------|
A|-8888-8-8--12-12121212/1010/8|
E|-8888-8-8--12----------------|

  There's a fire between us, so where is your god?
  There's a fire between us...

Riff 6
 |1   2   3   4    | 1    2   3   4   |
E|-----------------|------------------|
B|-----------------|------------------|
G|-----------------|------------------|
D|-----------------|------------------| * 4
A|-----------------|------------------|
E|888-10-8---8-8---|-121212-13-12-1212|

  I can't get off the carousel, I can't get off the carousel
  I can't get off the carousel, I can't get off this world
[ Tab from: http://www.guitartabs.cc/tabs/k/kovenant/spaceman_tab.html ]
Riff 7
e|-----------------|-----------------|-----------------|-----------------|-----------------|-----------------|---------------|
B|-----------------|-----------------|-----------------|-----------------|-----------------|-----------------|---------------|
G|-----------------|-----------------|-----------------|-----------------|-----------------|-----------------|---------------|
D|-5-5-5-5-5-5-5-5-|-3-3-3-3-3-3-3-3-|-1-1-1-1-1-1-1-1-|-3-3-3-3-3-3-3-3-|-5-5-5-5-5-5-5-5-|-3-3-3-3-3-3-3-3-|-1-------------|
A|-5-5-5-5-5-5-5-5-|-3-3-3-3-3-3-3-3-|-1-1-1-1-1-1-1-1-|-3-3-3-3-3-3-3-3-|-5-5-5-5-5-5-5-5-|-3-3-3-3-3-3-3-3-|-1-------------|
E|-5-5-5-5-5-5-5-5-|-3-3-3-3-3-3-3-3-|-1-1-1-1-1-1-1-1-|-3-3-3-3-3-3-3-3-|-5-5-5-5-5-5-5-5-|-3-3-3-3-3-3-3-3-|-1-------------|

  The ?? takes ?? morbid jokes, images of fascists foes
  Beam me up 'cos I can't breathe...

Riff 8 (CHORUS)
 |1   2   3   4    | 1    2   3   4   |1   2   3   4   |1   2   3   4   |
E|-----------------|------------------|----------------|----------------|
B|-----------------|------------------|----------------|----------------|
G|-----------------|------------------|----------------|----------------|
D|-5-5-5-5-5-5-5-5-|-8-8-8-8-8-8-8-8--|13-C-C-C-C-C-C-C|10-C-C-C-C-C-C-C|
A|-5-5-5-5-5-5-5-5-|-8-8-8-8-8-8-8-8--|13-C-C-C-C-C-C-C|10-C-C-C-C-C-C-C|
E|-5-5-5-5-5-5-5-5-|-8-8-8-8-8-8-8-8--|13-C-C-C-C-C-C-C|10-C-C-C-C-C-C-C|

 |1   2   3   4    | 1    2   3   4   |1   2   3   4   |1   2   3   4   |
E|-----------------|------------------|----------------|----------------|
B|-----------------|------------------|----------------|----------------|
G|-----------------|------------------|----------------|----------------|
D|-5-5-5-5-5-5-5-5-|-8-8-8-8-8-8-8-8--|13-C-C-C-C-C-C-C|15-C-C-C-C-C-C-C|
A|-5-5-5-5-5-5-5-5-|-8-8-8-8-8-8-8-8--|13-C-C-C-C-C-C-C|15-C-C-C-C-C-C-C|
E|-5-5-5-5-5-5-5-5-|-8-8-8-8-8-8-8-8--|13-C-C-C-C-C-C-C|15-C-C-C-C-C-C-C|


Riff 9 
 |1   2   3   4    | 1    2   3     4     |
E|-----------------|----------------------|
B|-----------------|----------------------|
G|-----------------|----------------------|
D|-10--10-10----10-|10/12-12/10-10/8-8/10-| * 4
A|-10--10-10----10-|10/12-12/10-10/8-8/10-|
E|-10--10-10----10-|10/12-12/10-10/8-8/10-|


Riff 5 * 4
Riff 4 * 8
Riff 5 * 3
Riff 6 * 4
Riff 7 * 1
Riff 8 * 2
Riff 9 * 4


 |1   2   3   4    |
E|-----------------|
B|-----------------|
G|-----------------|
D|-5---------------|
A|-5---------------|
E|-5---------------|
Comments