Kotiteollisuus - Viitta Vaille Vainaa Chords & Tabs

 

Viitta Vaille Vainaa Chords & Tabs

Kotiteollisuus Chords & Tabs

Version: 1 Type: Tab 0 ratings
1 star 2 stars 3 stars 4 stars 5 stars
comments

Viitta Vaille Vainaa Tab

   
KOTITEOLLISUUS: VIITTÄ VAILLE VAINAA

Vire: C#-G#-C#-F#-A#-D#

   
  ****************************************************************************

x = dempattuna


Alkuriffi
|-------------------------------------|
|-------------------------------------|
|-------------------------------------|
|--0-0-2-0-3--0-5--0-7-0--------------|
|--0-0-2-0-3--0-5--0-7-0----10--------|
|--0-0-2-0-3--0-5--0-7-0-12----12-10--|


...Maailma on...          1.               2.
|------------------------|----------------|------------|
|------------------------|----------------|------------|
|------------------------|----------------|------------|
|--0-0-2-0-3-3-0-5-5-0-7-|-0--------------|-7-0-0-0-0--|
|--0-0-2-0-3-3-0-5-5-0-7-|-0----10--------|-7-0-0-0-0--|
|--0-0-2-0-3-3-0-5-5-0-7-|-0-12----12-10--|-7-0-0-0-0--|
   x x x x x x x x x x x   x x  x  x  x     x x x x x

[ Tab from: http://www.guitartabs.cc/tabs/k/kotiteollisuus/viitta_vaille_vainaa_tab.html ]
...On meitä monta...    1.               2.
|----------------------|----------------|-----------|
|----------------------|----------------|-----------|
|----------------------|----------------|-----------|
|--0-0-2-0-3--0-5--0-7-|-0--------------|--0-0-0-0--|
|--0-0-2-0-3--0-5--0-7-|-0----10--------|--0-0-0-0--|
|--0-0-2-0-3--0-5--0-7-|-0-12----12-10--|--0-0-0-0--|
                                           x x x x


...Viittä vaille vainaa...
|-------------------------------------------------|
|-------------------------------------------------|
|-------------------------------------------------|
|--0-0-0-0-7-7-7-7-5-5-5-5-3-3-3-3-5-5-5-5-2-2-2--|
|--0-0-0-0-7-7-7-7-5-5-5-5-3-3-3-3-5-5-5-5-2-2-2--|
|--0-0-0-0-7-7-7-7-5-5-5-5-3-3-3-3-5-5-5-5-2-2-2--|


Loppujamit:
|--------------------------------------------------------------------------------|
|--------------------------------------------------------------------------------|
|--------------------------------------------------------------------------------|
|--0-0-----------0-----------0-------------0-0-----------0-----------0----0-0-0--|
|--0-0-----------0-----------0-------------0-0-----------0-----------0----0-0-0--|
|--0-0-12-11-10--0-12--11-10-0-10-12-11-10-0-0-12-11-10--0-12--11-10-0-10-0-0-0--|
                                           x x                            x x x

Lopetus:
|-------|
|-------|
|-------|
|--0-0--|
|--0-0--|
|--0-0--|
Comments