Kotiteollisuus - Vihattu Chords & Tabs

 

Vihattu Chords & Tabs

Kotiteollisuus Chords & Tabs

Version: 1 Type: Tab 0 ratings
1 star 2 stars 3 stars 4 stars 5 stars
comments

Vihattu Tab

   
KOTITEOLLISUUS: VIHATTU

Vire: C#-G#-C#-F#-A#-D#
Tabbed by plikk


|-----------------------------|
|-----------------------------|
|-----------------------------|
|-----------------------------|
|-----------------------------|
|--5--3--5--6--5--3--5--6--3--|

|------------------------------------------------------------------|
|------------------------------------------------------------------|
|------------------------------------------------------------------|
|--5--5--3--5--6--5--3--5--6--3--5--5--3--5--6--5--3--5--X-X--X-X--|
|--5--5--3--5--6--5--3--5--6--3--5--5--3--5--6--5--3--5--X-X--X-X--|
|--5--5--3--5--6--5--3--5--6--3--5--5--3--5--6--5--3--5--X-X--X-X--|

[ Tab from: http://www.guitartabs.cc/tabs/k/kotiteollisuus/vihattu_tab.html ]
...Vihattu!...
|---------------------------------------------------|
|---------------------------------------------------|
|---------------------------------------------------|
|--7-4-4-4-4-4-7-4-4-4-4-4-7-4-4-4-4-4-0------------|
|--7-4-4-4-4-4-7-4-4-4-4-4-7-4-4-4-4-4-0-7-7-7-7-7--|
|--7-4-4-4-4-4-7-4-4-4-4-4-7-4-4-4-4-4-0------------|


...Miekkani ennen...                                 1.     2.
|-----7-----------7---------------7-----------7-----|------|-----|
|--0-----7--5--0-----7--5--7---0-----7--5--0-----7--|-5--7-|--5--|
|---------------------------------------------------|------|-----|
|---------------------------------------------------|------|-----|
|---------------------------------------------------|------|-----|
|---------------------------------------------------|------|-----|



|---------------------------------------------------|
|---------------------------------------------------|
|---------------------------------------------------|
|--7-4-4-4-4-4-7-4-4-4-4-4-7-4-4-4-4-4-7-2-2-2-2-2--|
|--7-4-4-4-4-4-7-4-4-4-4-4-7-4-4-4-4-4-7-2-2-2-2-2--|
|--7-4-4-4-4-4-7-4-4-4-4-4-7-4-4-4-4-4-7-2-2-2-2-2--|


--------------------------------------------------------------------------------------
Comments