Kotiteollisuus - Vieraan Sanomaa Chords & Tabs

 

Vieraan Sanomaa Chords & Tabs

Kotiteollisuus Chords & Tabs

Version: 1 Type: Tab 0 ratings
1 star 2 stars 3 stars 4 stars 5 stars
comments

Vieraan Sanomaa Tab

   
KOTITEOLLISUUS: VIERAAN SANOMAA

Vire: C#-G#-C#-F#-A#-D#

tabien oikea tekijä Heikki Leinonen                                         

mä päätin ku ei täällä ole tästä uudesta levystä tabeja nii laittaa niitä tänne sit.

x = dempattuna


Alkuriffi              1.                2.
|---------------------|-----------------|-----------------|
|---------------------|-----------------|-----------------|
|---------------------|-----------------|-----------------|
|--0------0------0----|------0----------|------0---0-000--|
|--0------0------0----|------0----------|------0---0-000--|
|--0-10-9-0-10-9-0-12-|-10-9-0-10-9-7-3-|-10-9-0-3-0-000--|
                                                   x xxx

...Isoja ovat lapsuuteni puut...                                  1.  2.
|----------------------------------------------------------------|---|---|
|----------------------------------------------------------------|---|---|
|----------------------------------------------------------------|---|---|
|--7-7-7-7-7-7-7-7-7-7-7-7-7-7-7-7-8-8-8-8-8-8-8-8-8-8-8-8-8-8-8-|-8-|-7-|
|--7-7-7-7-7-7-7-7-7-7-7-7-7-7-7-7-8-8-8-8-8-8-8-8-8-8-8-8-8-8-8-|-8-|-7-|
|--7-7-7-7-7-7-7-7-7-7-7-7-7-7-7-7-8-8-8-8-8-8-8-8-8-8-8-8-8-8-8-|-8-|-7-|
   x x x x x x x x x x x x x x x x x x x x x x x x x x x x x x x   x   x
[ Tab from: http://www.guitartabs.cc/tabs/k/kotiteollisuus/vieraan_sanomaa_tab.html ]
...Ei lapsena...                                    1.                2.
|--------------------------------------------------|-----------------|------------|
|--------------------------------------------------|-----------------|-----------------|
|--------------------------------------------------|-----------------|-----------------|
|--5-5-5-5-5-5-5-5-5-5-5-5-5-5-5-5-3-3-3-3-3-3-3-3-|-3-3-3-3-3-3-3-3-|-2-2-2-2-2-2-2-2-|
|--5-5-5-5-5-5-5-5-5-5-5-5-5-5-5-5-3-3-3-3-3-3-3-3-|-3-3-3-3-3-3-3-3-|-2-2-2-2-2-2-2-2-|
|--5-5-5-5-5-5-5-5-5-5-5-5-5-5-5-5-3-3-3-3-3-3-3-3-|-3-3-3-3-3-3-3-3-|-2-2-2-2-2-2-2-2-|
   x x x x x x x x x x x x x x x x x x x x x x x x   x x x x x x x x   x x x x x x x x


Kertsi                                              1-3.              4.
|--------------------------------------------------|-----------------|-----------------|
|--------------------------------------------------|-----------------|-----------------|
|--------------------------------------------------|-----------------|-----------------|
|--0-0-0-0-0-0-0-0-8-8-8-8-8-8-8-8-3-3-3-3-3-3-3-3-|-5-5-5-5-5-5-5-5-|-5-5-5-5-5-5-5-5-|
|--0-0-0-0-0-0-0-0-8-8-8-8-8-8-8-8-3-3-3-3-3-3-3-3-|-5-5-5-5-5-5-5-5-|-5-5-5-5-5-5-5-5-|
|--0-0-0-0-0-0-0-0-8-8-8-8-8-8-8-8-3-3-3-3-3-3-3-3-|-5-5-5-5-5-5-5-5-|-5-5-5-5-5-5-5-5-|
                                                                       x x x x x x x


Loppuriffi             1.                2.
|---------------------|-----------------|-----------------|
|---------------------|-----------------|-----------------|
|---------------------|-----------------|-----------------|
|--0-10-9-0-10-9-0-12-|-10-9-0-10-9-7-3-|-10-9-0-3-0-0-0--|
|--0-10-9-0-10-9-0-12-|-10-9-0-10-9-7-3-|-10-9-0-3-0-0-0--|
|--0-10-9-0-10-9-0-12-|-10-9-0-10-9-7-3-|-10-9-0-3-0-0-0--|
Comments