Kosheen - All In My Head Chords & Tabs

 

All In My Head Chords & Tabs

Kosheen Chords & Tabs

Version: 1 Type: Tab 0 ratings
1 star 2 stars 3 stars 4 stars 5 stars
comments

All In My Head Tab

   
Song Name - All in my head
By - Kosheen
Tabbed by Brandon Matley
Corrections or comments - brandon_matley@yahoo.com



Intro:

e|----------------------------------------------------------------|
B|----------------------------------------------------------------|
G|-9--9-9---9-9--x-6--6-6--6-6--x-7--7-7--7-7--x-----------7-7---o|
D|-9--9-9---9-9--x-6--6-6--6-6--x-7--7-7--7-7--x-11-11-11--7-7---0|
A|-7--7-7---7-7--x-4--4-4--4-4--x-5--5-5--5-5--x-9--9--9---5-5----|
E|----------------------------------------------------------------|


repeat this over and over throughout the whole song

Verse 1:

I wonder why
You act so fly
When you try, so hard to try, to try, to try, to try
I see the sky, is open wide
Take a look inside
Its wild like a giant sweet
C’mon! 


Chorus:
[ Tab from: http://www.guitartabs.cc/tabs/k/kosheen/all_in_my_head_tab.html ]
It’s all in my head,
It’s all in my head
Us only, you and me
Wherever you go I will be
Just close your eyes and you’ll see
And wherever you go I will be

Solo:
e|----------------------------------|
B|----------------9--10--9----------| 
G|------------9--------------9------|
D|----------------------------------|
A|----------------------------------|
E|----------------------------------|


Verse 2:

On the other side
Of life we glide
Got our pride
Standing tall in the sun
Oh we’re flying high
Spinning in night time
Living life and loving free
This is where I wanna be
C’mon

Chorus:

It’s all in my head,
It’s all in my head
Us only, you and me
Wherever you go I will be
Just close your eyes and you’ll see
And wherever you go I will be


It’s all in my head,
It’s all in my head
Us only, you and me
Wherever you go I will be
Just close your eyes and you’ll see
And wherever you go I will be
Comments