Korn - Yall Want A Single Chords & Tabs

 

Yall Want A Single Chords & Tabs

Korn Chords & Tabs

Version: 8 Type: Tab 0 ratings
1 star 2 stars 3 stars 4 stars 5 stars
comments

Yall Want A Single Tab

Artist: Korn
Song: Ya'll wanna single
Album:Take a look In The mirror

Tuning: eBGDAD


Intro
e---------|
B---------|
G---------|
D---------|
A---------|
D---1-0---|


Boom,Boom,Boom,Boom...                         (played really quick)
e-----------------------------------------------------------------|
B-----------------------------------------------------------------|
G-----------------------------------------------------------------|
D--------------------1--0-3-3-3-2-0-1------1-0-3-3-3-3-2200-1--|x4
A--------------------1--0-3-3-3-2-0-1------1-0-3-3-3-3-2200-1--|
D--------------------1--0-3-3-3-2-0-1------1-0-3-3-3-3-2200-1--|


e---------------|
B---------------|
G---------------|
D---0-0-0-00-1--|x4
A--0-0-0-00-1--|
D--0-0-0-00-1--|


e------------------------|
B------------------------|
G------------------------|
D---0-2-3-8--7-8-10---|
A---0-2-3-8--7-8-10---|
D---0-2-3-8--7-8-10---|


(Verse)
e--------------------------------------------|
B--------------------------------------------|
G--------------------------------------------|
D--0-0-0-00-1------55-555-7--3-3-3-33-5---|x4
A---0-0-0-001-x4---55-5-55-7--3-3-3-33-5---|
D---0-0-0-00-1------5-5-5-55-7--3-3-3-33-5---|


(Chorus)
Ya'll wanna single...
e------------------------------------------------|
B------------------------------------------------|
G------------------------------------------------|
D---1--0-3-3-3-2-0-1------1-0-3-3-3-3-2200-1--|x4
A---1--0-3-3-3-2-0-1------1-0-3-3-3-3-2200-1--|
D---1--0-3-3-3-2-0-1------1-0-3-3-3-3-2200-1--|
[ Tab from: http://www.guitartabs.cc/tabs/k/korn/yall_want_a_single_tab_ver_8.html ]
e-----------------------|
B-----------------------|
G-----------------------|
D--0-2-3-8--7-8-10---|
A---0-2-3-8--7-8-10---|
D---0-2-3-8--7-8-10---|

(Verse)
e--------------------------------------------|
B--------------------------------------------|
G--------------------------------------------|
D--0-0-0-00-1------55-555-7--3-3-3-33-5---|x4
A---0-0-0-001-x4---55-5-55-7--3-3-3-33-5---|
D---0-0-0-00-1------5-5-5-55-7--3-3-3-33-5---|


(Chorus)
Ya'll wanna single...
e------------------------------------------------|
B------------------------------------------------|
G------------------------------------------------|
D---1--0-3-3-3-2-0-1------1-0-3-3-3-3-2200-1--|x4
A---1--0-3-3-3-2-0-1------1-0-3-3-3-3-2200-1--|
D---1--0-3-3-3-2-0-1------1-0-3-3-3-3-2200-1--|

We are the ones...
e-----------------------|
B-----------------------|
G-----------------------|
D--0-2-3-8--7-8-10---|
A--0-2-3-8--7-8-10---|
D--0-2-3-8--7-8-10---|


(Bridge)
e-------------|
B-------------|
G-------------|
D-------------|
A-------------|
D---0---1-0---|

Ya'll wanna single
e------------------------------------------|
B------------------------------------------|
G------------------------------------------|
D-----0-3-3-3-2-0-1-----3-3-3-3-2200-1--|x4
A-----0-3-3-3-2-0-1-----3-3-3-3-2200-1--|
D-----0-3-3-3-2-0-1-----3-3-3-3-2200-1--|


e------------------------------------------------|
B------------------------------------------------|
G------------------------------------------------|
D---1--0-3-3-3-2-0-1------1-0-3-3-3-3-2200-1--|x4
A---1--0-3-3-3-2-0-1------1-0-3-3-3-3-2200-1--|
D---1--0-3-3-3-2-0-1------1-0-3-3-3-3-2200-1--|

(Outro)
e-------------|
B-------------|
G-------------|
D-------------|
A-------------|
D---0---1-0---|
Comments