Korn - Yall Want A Single Chords & Tabs

 

Yall Want A Single Chords & Tabs

Korn Chords & Tabs

Version: 7 Type: Tab 0 ratings
1 star 2 stars 3 stars 4 stars 5 stars
comments

Yall Want A Single Tab

   
----------------------------------------------------------------------------
                         KoRn - Yall Want A Single
                     Album: take a look in the mirror
----------------------------------------------------------------------------

Tuning: drop d (E B G d A d) they keep showing yall want A single tabs
playing only with 1 string, but i think its more than 1 string

h = hammer on
~/~/~ = slide slowly

intro
E|-----|-----------------|------------|------------------------|
B|--7x-|-------8x--------|-----4x-----|-----------1x-----------|
G|-----|-----------------|------------|------------------------|
D|-6-5-|-6-5-88888-6-5-6-|-6-6-6-66h7-|-6--6-8--8-12--11-11-13-|
A|-6-5-|-6-5-88888-6-5-6-|-6-6-6-66h7-|-6--6-8--8-12--11-11-13-|
D|-6-5-|-6-5-88888-6-5-6-|-6-6-6-66h7-|-6--6-8--8-12--11-11-13-|

verse
E|------------|-------------------------------|
B|-----4x-----|-------------------------------|
G|------------|-------------------------------|
D|-6-6-6-66h7-|-10-10-10-1010h11--8-8-8-88h9--|
A|-6-6-6-66h7-|-10-10-10-1010h11--8-8-8-88h9--|
D|-6-6-6-66h7-|-10-10-10-1010h11--8-8-8-88h9--|
[ Tab from: http://www.guitartabs.cc/tabs/k/korn/yall_want_a_single_tab_ver_7.html ]
E|------------|-------------------------------|
B|-----2x-----|-------------------------------|
G|------------|-------------------------------|
D|-6-6-6-66h7-|-10-10-10-1010h11--8-8-8-88h9--|
A|-6-6-6-66h7-|-10-10-10-1010h11--8-8-8-88h9--|
D|-6-6-6-66h7-|-10-10-10-1010h11--8-8-8-88h9--|

chorus, 8x
E|-----------------|
B|-----------------|
G|-----------------|
d|-6-5-88888-6-5-6-|
A|-6-5-88888-6-5-6-|
d|-6-5-88888-6-5-6-|

pre-verse
E|------------------------|
B|------------------------|
G|------------------------|
D|-6--6-8--8-12--11-11-13-|
A|-6--6-8--8-12--11-11-13-|
D|-6--6-8--8-12--11-11-13-|

bridge1, start at 2:02 of the song
E|------------------------|
B|------------------------|
G|------------------------| GTR.1
D|-6--6-8--8-12--11-11-13-|
A|-6--6-8--8-12--11-11-13-|
D|-6--6-8--8-12--11-11-13-|

E|-------------------------------|
B|-------------------------------|
G|-------------------------------| GTR.2
D|-12--12-12-14--14--14-14-11-10-|
A|-------------------------------|
D|-------------------------------|

bridge2, play this at 2:19 of the song
E|---------|
B|---------|
G|---------| GTR.1
D|-77~~~---|
A|-77~~~---|
D|-77~~~---|

start at 2:35 of the song
E|--------------|
B|--------------|
G|-14-14/~/~/12-|
D|--x--x--------|
A|-12-12/~/~/~9-|
D|--------------|

song order = what time to play it:
intro      = 0:01
verse      = 0:45
chorus     = 1:05
pre-verse  = 1:21
verse      = 1:25
chorus     = 1:46
bridge1    = 2:02
bridge2    = 2:19
chorus     = 2:44
Comments