Korn - Yall Want A Single Chords & Tabs

 

Yall Want A Single Chords & Tabs

Korn Chords & Tabs

Version: 6 Type: Tab 0 ratings
1 star 2 stars 3 stars 4 stars 5 stars
comments

Yall Want A Single Tab

KORN-Y'All Want A Single
TAKE A LOOK IN THE MIRROR
TABBED BY-kornflipsk8er(stan_holland@hotmail.com)
TUNING-DADGBE

I TABBED THIS FOR A 6 STRING GUITAR RATHER THAN A 7, THATS WHAT I AND MOST OTHERS USE.

INTRO
|-----|
|-----|
|-----|  7X
|-----|
|-----|
|-2-0-|


CHORUS
|---------------|
|---------------|
|---------------|
|---------------|  8X
|-2-0-22332-0-2-|
|-2-0-22332-0-2-|


THEN
|----------------|
|----------------|
|----------------|
|----------------| 4X
|----------------|
|-0--0--0--0-0-2-|


BREAK
|--------------------|
|--------------------|
|--------------------|
|--------------------|
|-0--0-3--5--3-5-6-7-|
|-0--0-3--5--3-5-6-7-|


verse
|----------------|----------------|----------------|
|----------------|----------------|----------------|
|----------------|----------------|----------------|
|----------------|----------------|----------------|
|----------------|----------------|----------------|
|-0--0--0--0-0-2-|-0--0--0--0-0-2-|-0--0--0--0-0-2-|


|----------------|----------------|----------------|
|----------------|----------------|----------------|
|----------------|----------------|----------------|
|----------------|----------------|----------------|
|----------------|----------------|----------------|
|-0--0--0--0-0-2-|-2--2--2--2-2-3-|-1--1--1--1-1-0-|


|----------------|----------------|----------------|
|----------------|----------------|----------------|
|----------------|----------------|----------------|
|----------------|----------------|----------------|
|----------------|----------------|----------------|
|-0--0--0--0-0-2-|-0--0--0--0-0-2-|-2--2--2--2-2-3-|


|----------------|
|----------------|
|----------------|
|----------------|
|----------------|
|-1--1--1--1-1-0-|


CHORUS
|---------------|
|---------------|
|---------------|
|---------------|  8X
|-2-0-22332-0-2-|
|-2-0-22332-0-2-|



BREAK
|--------------------|
|--------------------|
|--------------------|
|--------------------|
|-0--0-3--5--3-5-6-7-|
|-0--0-3--5--3-5-6-7-|

[ Tab from: http://www.guitartabs.cc/tabs/k/korn/yall_want_a_single_tab_ver_6.html ]
verse
|----------------|----------------|----------------|
|----------------|----------------|----------------|
|----------------|----------------|----------------|
|----------------|----------------|----------------|
|----------------|----------------|----------------|
|-0--0--0--0-0-2-|-0--0--0--0-0-2-|-0--0--0--0-0-2-|


|----------------|----------------|----------------|
|----------------|----------------|----------------|
|----------------|----------------|----------------|
|----------------|----------------|----------------|
|----------------|----------------|----------------|
|-0--0--0--0-0-2-|-2--2--2--2-2-3-|-1--1--1--1-1-0-|


|----------------|----------------|----------------|
|----------------|----------------|----------------|
|----------------|----------------|----------------|
|----------------|----------------|----------------|
|----------------|----------------|----------------|
|-0--0--0--0-0-2-|-0--0--0--0-0-2-|-2--2--2--2-2-3-|


|----------------|
|----------------|
|----------------|
|----------------|
|----------------|
|-1--1--1--1-1-0-|


CHORUS
|---------------|
|---------------|
|---------------|
|---------------|  8X
|-2-0-22332-0-2-|
|-2-0-22332-0-2-|

breakdown
|--------------------|
|--------------------|
|--------------------|
|--------------------| 4x
|-0--2-5---3---5-3-2-|
|-0--2-5---3---5-3-2-|


|--------|
|--------|
|--------|
|--------| 4x
|-2-0----|
|-2-0----|


|---------------------|
|---------------------|
|---------------------|
|---------------------| 4x
|-2-0----2-0----2-2-2-|
|-2-0----2-0----2-2-2-|


|------------------|
|------------------|
|------------------|
|------------------| 4x
|-2-0-22332-0-2----|
|-2-0-22332-0-2----|



|---------------|---------------|---------------|
|---------------|---------------|---------------|
|---------------|---------------|---------------|
|---------------|---------------|---------------|  
|-2-0-22332-0-2-|-2-0-22332-0-2-|---0-22332-0-2-|
|-2-0-22332-0-2-|-2-0-22332-0-2-|---0-22332-0-2-|


CHORUS
|---------------|
|---------------|
|---------------|
|---------------|  4x
|-2-0-22332-0-2-|
|-2-0-22332-0-2-|

|---------------------|
|---------------------|
|---------------------|
|---------------------|
|---------------------|
|-0-----0-----0-----0-|
Comments