Korn - Yall Want A Single Chords & Tabs

 

Yall Want A Single Chords & Tabs

Korn Chords & Tabs

Version: 5 Type: Tab 0 ratings
1 star 2 stars 3 stars 4 stars 5 stars
comments

Yall Want A Single Tab

This is probably my fav. song on the new albulm, Take a Look in the Mirror..

As usual, I know Korn uses 7 strings, but I use a 6 string.

Y'all Want A Single
Tuning- DADGBE

poWerchrd1234

Intro- Listen to the song, to get the intro beat, its easy...
This is played 7 times throughout the intro..
e|------------------------------------------------------------|
B|------------------------------------------------------------|
G|------------------------------------------------------------|
D|------------------------------------------------------------|
A|--8--7---8-7--8-7------etc----------------------------------|
D|--8--7---8-7--8-7-------------------------------------------|

Cont Intro-  Listen to song, then you wil be able to figure this out
e|-------------------------------------------------------------------|
B|-------------------------------------------------------------------|
G|--------------------8x-then-----------4x-then----------------------|
D|-------------------------------------------------------------------|
A|--7-7--10--8--7--8----------7-7-7-7-8--------7---7-10-15-14-15-14--|
D|--7-7--10--8--7--8----------7-7-7-7-8--------7---7-10-15-14-15-14--|

Verses
e|-----------------------------------------------------------|
B|-----------------------------------------------------------|
G|------------------not-sure---------------------------------|
D|------------5x---about-this-3x-----------------------------|
A|--7-7-7-7-8-----3-3-3-3-5----------------------------------|
D|--7-7-7-7-8-----3-3-3-3-5----------------------------------|

Chorus 1- Back to verses
e|-----------------------------------------------------------|
B|-----------------------------------------------------------|
G|-----------------------------------------------------------|
D|-------------------------5x--------------------------------|
A|-7-7-10-10-8-7-8--7-8-7-8----7--7-10-15-14-15-14-----------|
D|-7-7-10-10-8-7-8--7-8-7-8----7--7-10-15-14-15-14-----------|

Chorus 2- After the main chorus, part one guitar plays the 2nd part in slower
beats, listen to the song
e|-----------------------------------------------------------|
B|------------------------------guitar-1---------------------|
G|-----------------------------------------------------------|
D|--------------------------5x-------------------------------|
A|-7-7-10-10-8-7-8--7-8-7-8-----7--10---15--14--15--14-------|
D|-7-7-10-10-8-7-8--7-8-7-8-----7--10---15--14--15--14-------|
[ Tab from: http://www.guitartabs.cc/tabs/k/korn/yall_want_a_single_tab_ver_5.html ]
Guitar 2/ Chorus 2- makes a weird noise in the background, not sure what he is
playing, so make it up....
e|-----------------------------------------------------------|
B|-----------------------------------------------------------|
G|-----------------------------------------------------------|
D|-12-12--15-15--19-19--17-17--------------------------------|
A|-12-12--15-15--19-19--17-17--------------------------------|
D|-----------------------------------------------------------|

Before Interlude- This is where Johnathan Davis is singing, "Breaking you Down"
e|-----------------------------------------------------------|
B|-----------------------------------------------------------|
G|-------------------------------------4X--------------------|
D|------4x--------------PLAY-THIS-HARD-----------------------|
A|--8-7----7-10-10-8-7-8--7-8-7-8-7--------------------------|
D|--8-7----7-10-10-8-7-8--7-8-7-8-7--------------------------|
                        FUCK THAT SHIT  

Guitar 2- Listen to the song, the 2nd guitar comes in again, before Johnathan
Davis starts to scream
e|-----------------------------------------------------------|
B|-----------------------------------------------------------|
G|-----------------------------------------------------------|
D|-----------------------------------------------------------|
A|-12-12-12-12-11-10-9---------------------------------------|
D|-----------------------------------------------------------|

SCREAMING PART
e|-----------------------------------------------------------|
B|-----------------------------------------------------------|
G|-----------------------------------------------------------|
D|----------------7x-----------------------------------------|
A|-7-10-10-8-7-8---------------------------------------------|
D|-7-10-10-8-7-8---------------------------------------------|

Ending
e|------------------------------------------------------------|
B|------------------------------------------------------------|
G|------------------------------------------------------------|
D|------------------------rest-repeat-4x----------------------|
A|-7-10-10-8-7-8--7-8-7-8------------------7------8-----------|
D|-7-10-10-8-7-8--7-8-7-8------------------7-ring-8-----------|

Thats it, this might sound weird, but you need to either buy the record, or dl
the song, and play along with it, and you will get it pretty fast..

Any questions, email keithistheman84@hotmail, or if you found any parts that are wrong...
Comments