Korn - Yall Want A Single Chords & Tabs

 

Yall Want A Single Chords & Tabs

Korn Chords & Tabs

Version: 4 Type: Tab 0 ratings
1 star 2 stars 3 stars 4 stars 5 stars
comments

Yall Want A Single Tab

   
----------------------------------------------------------------------------
                          KoRn - yall want a single
----------------------------------------------------------------------------

artist: KoRn
song: Yall want a single
album: take a look in the mirror

tuning: standard (E B G D A E) 6 string guitar

this song rules!!

intro, distorted
E|-----------------------------------------------------------------------
B|-----------------------------------------------------------------------
G|-----------------------------------------------------------------------
D|-6-6----6-6----6-6----6-6----6-6----6-6-----6-6------------------------
A|-6-6----6-6----6-6----6-6----6-6----6-6-----6-6------------------------
E|-4-4----4-4----4-4----4-4----4-4----4-4-----4-4------------------------

E|-----------------------------------------------------------------------
B|-----------------------------------------------------------------------
D|-6-6--7-7-7-7--6-6-..8 times then..--6--6--6--6/7-7-6-..4 times then.--
A|-6-6--7-7-7-7--6-6-------------------6--6--6--6/7-7-6------------------
E|-4-4--5-5-5-5--4-4-------------------4--4--4--4/5-5-4------------------

E|-----------------------------------------------------------------------
B|-----------------------------------------------------------------------
G|-------------------------11-11-11-12-----------------------------------
D|-6--6/8--8--8/10--10/11--11-11-11-12-----------------------------------
A|-6--6/8--8--8/10--10/11---9--9--9-10-------------------------------------
E|-4--4/6--6--6/8----8/9--------------------------------------------------

VERSE, DISTORTION, 10 TIMES
E|------------------------------------------------------------------------
B|------------------------------------------------------------------------
G|------------------------------------------------------------------------
D|-6--6--6--6/7-7-6-------------------------------------------------------
A|-6--6--6--6/7-7-6-------------------------------------------------------
E|-4--4--4--4/5-5-4-------------------------------------------------------
[ Tab from: http://www.guitartabs.cc/tabs/k/korn/yall_want_a_single_tab_ver_4.html ]
CHORUS, DIST, 8 TIMES
E|------------------------------------------------------------------------
B|------------------------------------------------------------------------
G|------------------------------------------------------------------------
D|-6-6--7-7-7-7--6-6------------------------------------------------------|
A|-6-6--7-7-7-7--6-6------------------------------------------------------|
E|-4-4--5-5-5-5--4-4------------------------------------------------------|

AND PLAY THIS BEFORE U GO BACK TO THE VERSE
E|------------------------------------------------------------------------|
B|------------------------------------------------------------------------|
G|-------------------------11-11-11-12------------------------------------|
D|-6--6/8--8--8/10--10/11--11-11-11-12------------------------------------|
A|-6--6/8--8--8/10--10/11---9--9--9-10------------------------------------|
E|-4--4/6--6--6/8----8/9--------------------------------------------------|

YOU PLAY THIS STARTING AT 2:02 OF THE SONG, 5 TIMES
E|------------------------------------------------------------------------|
B|------------------------------------------------------------------------|
G|-------------------------11-11-11-12------------------------------------|
D|-6--6/8--8--8/10--10/11--11-11-11-12------------------------------------|
A|-6--6/8--8--8/10--10/11---9--9--9-10------------------------------------|
E|-4--4/6--6--6/8----8/9--------------------------------------------------|

THEN..AT 2:26
E|------------------------------------------------------------------------|
B|------------------------------------------------------------------------|
G|------------------------------------------------------------------------|
D|-6-6--7-7-7-7--6-6------------------------------------------------------|
A|-6-6--7-7-7-7--6-6------------------------------------------------------|
E|-4-4--5-5-5-5--4-4------------------------------------------------------|

THEN..AT 2:44 TO 2:51, 4 TIMES
E|-----------------------------------------------------------------------|
B|-----------------------------------------------------------------------|
G|-----------------------------------------------------------------------|
D|-6--6--6--6/7-7-6------------------------------------------------------|
A|-6--6--6--6/7-7-6------------------------------------------------------|
E|-4--4--4--4/5-5-4------------------------------------------------------|

THEN YOU PLAY THIS AT ABOUT 2:52, 9 TIMES
E|-----------------------------------------------------------------------|
B|-----------------------------------------------------------------------|
G|-----------------------------------------------------------------------|
D|-6-6--7-7-7-7--6-6-----------------------------------------------------|
A|-6-6--7-7-7-7--6-6-----------------------------------------------------|
E|-4-4--5-5-5-5--4-4-----------------------------------------------------|

THATS ALL I KNOW
Comments