Korn - Yall Want A Single Chords & Tabs

 

Yall Want A Single Chords & Tabs

Korn Chords & Tabs

Version: 3 Type: Tab 0 ratings
1 star 2 stars 3 stars 4 stars 5 stars
comments

Yall Want A Single Tab

Band:  KoRn
Song:  Yall Want A Single
Album: Take a Look In The Mirror
Tabbed By:  Gizzil (strng_slngr@hotmail.com)

Tuning: 7string down a step  ADGCFAD

Simple Song to play, just listen to the cd

    intro
D|-------------------------------------------------------------|
A|-------------------------------------------------------------|
F|-------------------------------------------------------------|
C|-------------------------------------------------------------|
G|-------------------------------------------------------------|
D|-------------------------------------------------------------|
A|-1--0-----------------1--0-----------------------------------|

    Main riff
D|-------------------------------------------------------------|
A|-------------------------------------------------------------|
F|-------------------------------------------------------------|
C|-------------------------------------------------------------|
G|----------------------rest----------------------rest---------|
D|-------------------------------------------------------------|
A|-1--0-3-3-3-3-3-1-0-1------1--0-3-3-3-3-3-1-0-1------1-------|

    Verse
D|-------------------------------------------------------------|
A|-------------------------------------------------------------|
F|-------------------------------------------------------------|
C|-------------------------------------------------------------|
G|-------------------------------------------------------------|
D|-2--2--2-22h3---2--2--2-22h3---2--2--2-22h3---2--2--2-22h3---|
A|-0--0--000h1---0--0--0-00h1---0--0--0-00h1---0--0--0-00h1---|

D|-------------------------------------------------------------|
A|-------------------------------------------------------------|
F|-------------------------------------------------------------|
C|-------------------------------------------------------------|
G|-2--2--2-22-4--------------2---------------------------------|
D|-0--0--0-00-2---5--5--5-55-0---------------------------------|
A|----------------3--3--3-33-----------------------------------|
[ Tab from: http://www.guitartabs.cc/tabs/k/korn/yall_want_a_single_tab_ver_3.html ]
    Chorus - (Play after the first line of verse before words kick in)
D|-------------------------------------------------------------|
A|-------------------------------------------------------------|
F|-------------------------------------------------------------|
C|------------------5-----5-4--5--7----------------------------|
G|-2------3/5-----2-5-----5-4--5--7----------------------------|
D|-2------3/5-----0-3-----3-2--3--5----------------------------|
A|-0------1/3--------------------------------------------------|


    Interlude                (fuck that shit) part
D|-------------------------------------------------------------|
A|-------------------------------------------------------------|
F|-------------------------------------------------------------|
C|---------------------------.--.--.---------------------------|
G|-2-----3-2-----3-2------2--3--3--3---------------------------|
D|-2-----3-2-----3-2------2--3--3--3---------------------------|
A|-0-----1-0-----1-0------0--1--1--1---------------------------|
    
    Heavy main riff     (during the long scream)
D|-------------------------------------------------------------|
A|-------------------------------------------------------------|
F|-------------------------------------------------------------|
C|-------------------rest----------------------rest------------|
G|-------------------------------------------------------------|
D|-2-5-5-5-5-5-3-2-3------3--2-5-5-5-5-5-3-2-3------3----------|
A|-0-3-3-3-3-3-1-0-1------1--0-3-3-3-3-3-1-0-1------1----------|

    Main Riff variation (play once and then end on previous riff)
D|-------------------------------------------------------------|
A|-------------------------------------------------------------|
F|-------------------------------------------------------------|
C|-------------------------------------------------------------|
G|--------------------rest-------------------rest--------------|
D|-------------------------------------------------------------|
A|--0-3-3-3-3-3-1-0-1------0-3-3-3-3-3-1-0-1-------------------|

D|-------------------------------------------------------------|
A|-------------------------------------------------------------|
F|-------------------------------------------------------------|
C|-------------------------------------------------------------|
G|--------------------rest-------------------rest--------------|
D|-------------------------------------------------------------|
A|----3-3-3-3-3-1-0-1------0-3-3-3-3-3-1-0-1-------------------|
Comments