Korn - Yall Want A Single Chords & Tabs

 

Yall Want A Single Chords & Tabs

Korn Chords & Tabs

Version: 2 Type: Tab 0 ratings
1 star 2 stars 3 stars 4 stars 5 stars
comments

Yall Want A Single Tab

   
Artist-KoRn
Title-Ya'll Want a single: 
Tabbed by-popKoRnkid15
Tuning-ADGCFA


Hey everyone.I know most of you dont have a 7 string guitar, so i decided to tab this song in 6 string. This is my first song to tab. Sounds pretty simple.You try and see if its correct. KoRn is an awsome band
and their new CD is awsome. The other tabs to Yall want a single were good but were missing some parts so i decided   "improve" it.

Intro:( repeat 7 times)
A-------------
D-------------
G-------------
C-------------
F-------------
A-1-0---------

riff 1- (listen to album/repeat 4 times)
A------------------------------------------
D------------------------------------------
G------------------------------------------
C------------------------------------------
F------------------------------------------
A-1-0-3333-222-0-1----1-0-3333-2-0-1-------

Fill:(4 times/listen to album for rythym)
A---------------
D---------------
G---------------
C---------------
F---------------
A-1-0--0--0--00-

Pre-Chorus/Interlude
A----------------------
D----------------------
G-------------5---4-5-7
C-------------3---2-3-5
F-2---4-5--4-----------
A-0---2-3--2-----------

Verse(listen to album)
A------------------------------------------------------------------------------------------------------------                              
D------------------------------------------------------------------------------------------------------------                              
G------------------------------------------------------------------------------------------------------------          
C------------------------------------------------------------------------------------------------------------                  
F------------------------------------------------------------0--0--0--00-1-----------------------------------                            
A-1-0--0--0--00--1-0--0--0--00-1-0--0--0--00-1-0--0--0--00-1-----------------3--3--3--33--5-0--0--0--00-1--0--0--0--00-1 

-----------------------------
-----------------------------
-----------------------------
-----------------------------
-0--0--0--00-1---------------
---------------3--3--3--33-5-

Chorus-This is a kool chorus with some heavy distortion
A-----------------------------------
D-----------------------------------
G-----------------------------------
C-3---5555-444---3----3---5555-4---3
F-3-0-5555-444-0-3----3-0-5555-4-0-3
A-1-0-3333-222-0-1----1-0-3333-2-0-1

Pre-Chorus/Interlude
A----------------------
D----------------------
G-------------5---4-5-7
C-------------3---2-3-5
F-2---4-5--4-----------
A-0---2-3--2-----------
[ Tab from: http://www.guitartabs.cc/tabs/k/korn/yall_want_a_single_tab_ver_2.html ]
Verse(listen to album)
A------------------------------------------------------------------------------------------------------------                              
D------------------------------------------------------------------------------------------------------------                              
G------------------------------------------------------------------------------------------------------------          
C------------------------------------------------------------------------------------------------------------                  
F------------------------------------------------------------0--0--0--00-1-----------------------------------                            
A-1-0--0--0--00--1-0--0--0--00-1-0--0--0--00-1-0--0--0--00-1-----------------3--3--3--33--5-0--0--0--00-1--0--0--0--00-1 

-----------------------------
-----------------------------
-----------------------------
-----------------------------
-0--0--0--00-1---------------
---------------3--3--3--33-5-

Chorus
A-----------------------------------
D-----------------------------------
G-----------------------------------
C-3---5555-444---3----3---5555-4---3
F-3-0-5555-444-0-3----3-0-5555-4-0-3
A-1-0-3333-222-0-1----1-0-3333-2-0-1


Pre-Chorus/Interlude
A----------------------
D----------------------
G-------------5---4-5-7       - Repeat until Johnathan says " all across the world, you get what you find."
C-------------3---2-3-5
F-2---4-5--4-----------
A-0---2-3--2-----------

Fill 2-
A---
D---
G---    continue until Johnathan starts singing ya'll want a single say f*** that. f*** that, f*** that shit!
C---
F----
A-1-0

Verse 2
A---------------
D---------------
G---------------
C---------------
F-2-------3--2--
A-0-------1--0--

Fill 3
A-----------------------------------
D-----------------------------------
G-----------------------------------
C-----------------------------------      Munkey plays this while Head plays verse 2.
F-13-13-13-13-13-13-13-13-12-11-10--
A-----------------------------------

Pre-chorus 2
A---------------
D---------------
G---------------  Play this when Johnathan says" yall wanna single say f*** that, f*** that f***. Wanna single say f*** that..."
C---------------
F---------------
A-0-3333-2-0-1-- 

Chorus
A-----------------------------------
D-----------------------------------
G-----------------------------------
C-3---5555-444---3----3---5555-4---3
F-3-0-5555-444-0-3----3-0-5555-4-0-3
A-1-0-3333-222-0-1----1-0-3333-2-0-1

End Verse
A-------------
D-------------
G-------------
C-------------
F-2--2--2--22-3
A-0--0--0--00-1





                      
Comments