Korn - Yall Want A Single Chords & Tabs

 

Yall Want A Single Chords & Tabs

Korn Chords & Tabs

Version: 7 Type: Bass Tab 0 ratings
1 star 2 stars 3 stars 4 stars 5 stars
comments

Yall Want A Single Bass Tab

   
-------------------------------------------------------------------------------
			 Y'ALL WANT A SINGLE - KoRn
-------------------------------------------------------------------------------

Tabbed By : KoRnKid89
e-mail: XblytheX89@aol.com

Tuning: ADGCF

  
  Intro:
F|-------|
C|-------|
G|-------|
D|-------|
A|--1-0--|
  (x6)
   
  (Slap all)
F|-------------------|-------------------|
C|-------------------|-------------------|
G|-------------------|-------------------|
D|-------------------|-------------------|
A|--1-0--1-3--13102--|--1-0--1133-1-0-2--|
  (X4)

  (Slap all)
F|-------------------|-----------------|-----------------|-----------------|
C|-------------------|-----------------|-----------------|-----------------|
G|-------------------|-----------------|-----------------|-----------------|
D|-------------------|-----------------|-----------------|-----------------|
A|--1-0--0--0--0-1-2-|--0--0--0--0-1-2-|--0--0--0--0-1-2-|--0--0--0--0-1-2-|

F|--------------------------------|
C|--------------------------------|
G|--------------------------------|
D|----------------3---3--0--3--4--|
A|--0---0--3---3------------------|


  Verse (Slap all):

F|-----------------|
C|-----------------|
G|-----------------|
D|-----------------|
A|--0--0--0--0-1-2-|
  (4x)

F|-----------------|-----------------|-----------------|-----------------|
C|-----------------|-----------------|-----------------|-----------------|
G|-----------------|-----------------|-----------------|-----------------|
D|-----------------|-----------------|-----------------|-----------------|
A|--5--5--5--0-5-6-|--3--3--3--0-3-4-|--0--0--0--0-1-2-|--0--0--0--0-1-2-|

F|-----------------|-----------------|
C|-----------------|-----------------|
G|-----------------|-----------------|
D|-----------------|-----------------|
A|--5--5--5--0-5-6-|--3--3--3--0-3-4-|


  Chorus:

  (Slap all)
F|-------------------|-------------------|
C|-------------------|-------------------|
G|-------------------|-------------------|
D|-------------------|-------------------|
A|--1-0--1-3--13102--|--1-0--1133-1-0-2--|
  (x4)
[ Tab from: http://www.guitartabs.cc/tabs/k/korn/yall_want_a_single_btab_ver_7.html ]
F|-----------------------------------|
C|-----------------------------------|
G|-----------------------------------|
D|-------------------3---3--0--3--4--|
A|--1--0---0--3---3------------------|


  Bridge:
F|-----------------------------------|
C|-----------------------------------|
G|-----------------------------------|
D|-------------------3---3--0--3--4--|
A|--1--0---0--3---3------------------|

F|--------------------------------|
C|--------------------------------|
G|--------------------------------|
D|----------------3---3--0--3--4--|
A|--0---0--3---3------------------|
  (x3)

F|----------------------------|
C|----------------------------|
G|----------------------------|
D|----------------------------|
A|--0----1-0----1-0----1-0----|

  
  Outro (Slap all):

F|----------|------------------|
C|----------|------------------|
G|----------|------------------|
D|----------|------------------|
A|--0--0-1--|--1-0--0-1--1--1--|
  (x4)

F|-------------------|-------------------|
C|-------------------|-------------------|
G|-------------------|-------------------|
D|-------------------|-------------------|
A|--1-0--1-3--13102--|--1-0--1133-1-0-2--|
  (x2)

F|-------------------|-------------------|-------------------|-------------------|
C|-------------------|-------------------|-------------------|-------------------|
G|-------------------|-------------------|-------------------|-------------------|
D|-------------------|-------------------|-------------------|-------------------|
A|--1-0--1-3--13102--|--1-0--1133-1-0-2--|-------1133-1-0-2--|--1-0--1133-1-0-2--|


F|-------------------|-------------------|
C|-------------------|-------------------|
G|-------------------|-------------------|
D|-------------------|-------------------|
A|--1-0--1-3--13102--|--1-0--1133-1-0-2--|
  (x2)

F|--------------------|------------------|------------------|------------------|
C|--------------------|------------------|------------------|------------------|
G|--------------------|------------------|------------------|------------------|
D|--------------------|------------------|------------------|------------------|
A|--1-0--1--0--0-1-2--|--0--1--0--0-1-2--|--0--1--0--0-1-2--|--0--1--0--0-1-2--|

    P
F|-----|
C|-----|
G|-----|
D|-----|
A|--0--|



| P  pop
| S  slap
| /  slide up
| \  slide down
| h  hammer-on
| p  pull-off
| ~  vibrato
| +  harmonic
| x  Mute note
===============================================================================
Comments