Korn - Yall Want A Single Chords & Tabs

 

Yall Want A Single Chords & Tabs

Korn Chords & Tabs

Version: 3 Type: Bass Tab 0 ratings
1 star 2 stars 3 stars 4 stars 5 stars
comments

Yall Want A Single Bass Tab

song: yall want a single
artist: korn
tabber: ki11er


im sure this is right

Tuning:adgcf

intro ( its the first fret then open not 10)
|-----------------------------------------------------------------|
|-----------------------------------------------------------------|
|-----------------------------------------------------------------|
|-----------------------------------------------------------------|
|--10-----------10-----------10------------10----------10---------|

Chorus
|-----------------------------------------------------------------|
|-----------------------------------------------------------------|
|-----------------------------------------------------------------|
|-----------------------------------------------------------------|
|----0-2--3333--0--2----------------------------------------------|
(^go with the guitar^)

[ Tab from: http://www.guitartabs.cc/tabs/k/korn/yall_want_a_single_btab_ver_3.html ]
verse
|-----------------------------------------------------------------|
|-----------------------------------------------------------------|
|-----------------------------------------------------------------|
|-----------------------------------------------------------------|
|-0----0--0-0--00-2--0----0--0-0--00-2--0--0-0--00-2--------------|

G|---------------------------------------------------------------------|
D|---------------------------------------------------------------------|
A|---------------------------------------------------------------------|
E|--4---3----3--3-3--33-4--2----2--2--22-3-----------------------------|


other part 
|----------------------------------------------------------------|
|----------------------------------------------------------------|
|----------------------------------------------------------------|
|----2-----------3--------------5-----------------5--32----------|
|---------0-------------0---------------0------------------0-----|


follow order from song you should figure it out
Comments