Korn - Word Up Chords & Tabs

 

Word Up Chords & Tabs

Korn Chords & Tabs

Version: 5 Type: Tab 0 ratings
1 star 2 stars 3 stars 4 stars 5 stars
comments

Word Up Tab

   
Band: KoRn
Album: Greatest Hits Vol. 1
Song: Word Up
By: NoTaMu
Dropped D (D A D G B E)

Intro

	Gtr.1 (Head)
E||--2----2----2----2--|----0----0----0----0--|--------------0----0--|
B||--2----2----2----2--|----0----0----0----0--|----3----3----0----0--|
G||--2----2----2----2--|----1----1----1----1--|----2----2----1----1--|
D||--------------------|----------------------|----4----4------------|
A||--------------------|----------------------|----------------------|
D||--------------------|----------------------|----------------------|



----2----2----2----2--|
----2----2----2----2--|
----2----2----2----2--|
----------------------|
----------------------|
----------------------|



	Gtr.2 (Munky)
E||----------------------------------|----------------------------------|
B||----------------------------------|----------------------------------|
G||--2-2-2-2-2-2-2-2-2-2-2-2-2-2-2-2-|--1-1-1-1-1-1-1-1-1-1-1-1-1-1-1-1-|
D||----------------------------------|----------------------------------|
A||----------------------------------|----------------------------------|
D||----------------------------------|----------------------------------|



----------------------------------|----------------------------------|
----------------------------------|----------------------------------|
----------------------------------|----------------------------------|
--4-4-4-4-4-4-4-4-4-4-4-4-4-4-4-4-|--4-4-4-4-4-4-4-4-4-4-4-4-4-4-4-4-|
----------------------------------|----------------------------------|
----------------------------------|----------------------------------|


Verse

	Gtr.1 (Head)                                                  4x
E||----2----2----2----2--|----0----0----0----0--|--------------0----0--|
B||----2----2----2----2--|----0----0----0----0--|----3----3----0----0--|
G||----2----2----2----2--|----1----1----1----1--|----2----2----1----1--|
D||----------------------|----------------------|----4----4------------|
A||----------------------|----------------------|----------------------|
D||----------------------|----------------------|----------------------|



----2----2----9------|
----2----2-----------|
----2----2-----------|
---------------------|
---------------------|
---------------------|



	Gtr.2 (Munky)                                             4x
E||--------------------|--------------------|----------------------|
B||--------------------|--------------------|----------------------|
G||--------------------|--------------------|----------------------|
D||--4------4----------|--2------2----------|--0------0--2------2--|
A||--4------4----------|--2------2----------|--0------0--2------2--|
D||--4------4----------|--2------2----------|--0------0--2------2--|


----------------------|
----------------------|
----------------------|
--4--4--2--4----------|
--4--4--2--4----------|
--4--4--2--4----------|


Chorus
[ Tab from: http://www.guitartabs.cc/tabs/k/korn/word_up_tab_ver_5.html ]
	Gtr.1 (Head)                                               2x
E||------7--7----6------|--5------4----------|----------------------|
B||------7--7----7------|--5------5----------|----------------------|
G||---------------------|--------------------|----------------------|
D||---------------------|--------------------|--0------0--2------2--|
A||---------------------|--------------------|--0------0--2------2--|
D||---------------------|--------------------|--0------0--2------2--|



----------------------|
----------------------|
----------------------|
--4--4--2--4----------|
--4--4--2--4----------|
--4--4--2--4----------|



	Gtr.2 (Munky)                                             2x
E||--------------------|--------------------|----------------------|
B||--------------------|--------------------|----------------------|
G||--------------------|--------------------|----------------------|
D||--4------4----------|--2------2----------|--0------0--2------2--|
A||--4------4----------|--2------2----------|--0------0--2------2--|
D||--4------4----------|--2------2----------|--0------0--2------2--|


----------------------|
----------------------|
----------------------|
--4--4--2--4----------|
--4--4--2--4----------|
--4--4--2--4----------|


Bridge

	Gtr.1 (Head)                                         2x
E||-----------------------------------------------------------|
B||----10101010-10101010-10101010-101010-10101010-101010-1010-|
G||-----x-x-x-x--x-x-x-x--x-x-x-x--x-x-x--x-x-x-x--x-x-x--x-x-|
D||-----7-7-7-7--7-7-7-7--7-7-7-7--7-7-7--7-7-7-7--7-7-7--7-7-|
A||-----------------------------------------------------------|
D||-----------------------------------------------------------|



-------------------------------------------------------------|
---9-9--9--9-9-9-9--9-9-9--9-9-9-9--9-9-9--9-9-9-9--9-9-9-9--|
---x-x--x--x-x-x-x--x-x-x--x-x-x-x--x-x-x--x-x-x-x--x-x-x-x--|
---6-6--6--6-6-6-6--6-6-6--6-6-6-6--6-6-6--6-6-6-6--6-6-6-6--|
-------------------------------------------------------------|
-------------------------------------------------------------|


-----------------------------------|-------------------------------------|
---------7-7-7-7-7-7-----7-7-7-7-7-|--7------7-7-7-7-7-7-----7-7-7-7-7-7-|
---------x-x-x-x-x-x-----x-x-x-x-x-|--x------x-x-x-x-x-x-----x-x-x-x-x-x-|
---------4-4-4-4-4-4-----4-4-4-4-4-|--4------4-4-4-4-4-4-----4-4-4-4-4-4-|
-----------------------------------|-------------------------------------|
-----------------------------------|-------------------------------------|



	Gtr.2 (Munky)                                        2x
E||-----------------------------|-----------------------------|
B||-----------------------------|-----------------------------|
G||-----------------------------|-----------------------------|
D||-----------------------------|-----------------------------|
A||--------------------------3--|--------------------------3--|
D||--2-3-4--4--2-3-4--4--2-3----|--2-3-4--4--2-3-4--4--2-3----|



-----------------------------|-----------------------------|
-----------------------------|-----------------------------|
-----------------------------|-----------------------------|
-----------------------------|-----------------------------|
--------------------------3--|--------------------------2--|
--2-3-4--4--2-3-4--4--2-3----|--2-3-4--4--2-3-4--4--2-3----|
Comments