Korn - Word Up Chords & Tabs

 

Word Up Chords & Tabs

Korn Chords & Tabs

Version: 1 Type: Tab 0 ratings
1 star 2 stars 3 stars 4 stars 5 stars
comments

Word Up Tab

   
Band: KoRn
Album: Greatest Hits 
Song: Word Up (Cameo Cover)
Transcribed by: RipHead
Tuning (A D G C F A D)

----------------------------------------------------------------------------
Main Riff
d||--------------------------------||
a||--------------------------------||
F||--------------------------------||
C||--6--6--4--4--2--2-4--4-6-6-6-6-||
G||--6--6--4--4--2--2-4--4-6-6-6-6-||
D||--4--4--2--2--0--0-2--2-4-4-4-4-||
A||--------------------------------||
[ Tab from: http://www.guitartabs.cc/tabs/k/korn/word_up_tab.html ]
Bridge
d||--------------------------------||--------------------------------||
a||--------------------------------||--------------------------------||
F||--------------------------------||--------------------------------||
C||--------------------------------||--------------------------------||
G||------------------------5-------||------------------------4-------||
D||--2-4-4--4--2-4--4--2-4---------||--2-4-4--4--2-4--4--2-4---------||
A||--------------------------------||--------------------------------||

Outro
d||--------------------------------||
a||--------------------------------||
F||--------------------------------||
C||-6-999-88-66-4-66-44-66-66_____-||
G||-6-999-88-66-4-66-44-66-66_____-||
D||-4-777-66-44-2-44-22-44-44_____-||
A||--------------------------------||
Comments