Korn - Wicked Chords & Tabs

 

Wicked Chords & Tabs

Korn Chords & Tabs

Version: 2 Type: Tab 0 ratings
1 star 2 stars 3 stars 4 stars 5 stars
comments

Wicked Tab

   
Band- Korn
Song- Wicked
Album- Life Is Peachy
Tuning- Standard

Intro:(Guitar1)
d|-----------------|
a|-14--12/14\12\10-|
F|-----------------|
C|-----------------|
G|-----------------|
D|-----------------|
A|-----------------|

Chorus:(Guitar1 & Guitar2)
d|----------------|
a|----------------|
F|----------------|
C|----------------|
G|-5--3--2--8-7-6-|
D|-5--3--2--8-7-6-|
A|-3--1--0--6-5-4-|

Bridge1:(Guitar2)
d|-10-10-10--9-9-9--8-8-8--7-66-6-|
a|-10-10-10--9-9-9--8-8-8--7-66-6-|
F|--------------------------------|
C|--------------------------------|
G|--------------------------------|
D|--------------------------------|
A|--------------------------------|

Verse:(Guitar1)
d|-----------------|
a|-14--12/14\12\10-|
F|-----------------|
C|-----------------|
G|-----------------|
D|-----------------|
A|-----------------|

Chorus:(Guitar1 & Guitar2)
d|----------------|
a|----------------|
F|----------------|
C|----------------|
G|-5--3--2--8-7-6-|
D|-5--3--2--8-7-6-|
A|-3--1--0--6-5-4-|

Bridge1:(Guitar2)
d|-10-10-10--9-9-9--8-8-8--7-66-6-|
a|-10-10-10--9-9-9--8-8-8--7-66-6-|
F|--------------------------------|
C|--------------------------------|
G|--------------------------------|
D|--------------------------------|
A|--------------------------------|

Verse:(Guitar1)
d|-----------------|
a|-14--12/14\12\10-|
F|-----------------|
C|-----------------|
G|-----------------|
D|-----------------|
A|-----------------|
[ Tab from: http://www.guitartabs.cc/tabs/k/korn/wicked_tab_ver_2.html ]
Chorus:(Guitar1 & Guitar2)
d|----------------|
a|----------------|
F|----------------|
C|----------------|
G|-5--3--2--8-7-6-|
D|-5--3--2--8-7-6-|
A|-3--1--0--6-5-4-|

Bridge1:(Guitar2)
d|-10-10-10--9-9-9--8-8-8--7-66-6-|
a|-10-10-10--9-9-9--8-8-8--7-66-6-|
F|--------------------------------|
C|--------------------------------|
G|--------------------------------|
D|--------------------------------|
A|--------------------------------|

Chorus:(Guitar1 & Guitar2)
d|----------------|
a|----------------|
F|----------------|
C|----------------|
G|-5--3--2--8-7-6-|
D|-5--3--2--8-7-6-|
A|-3--1--0--6-5-4-|

Outro:(Guitar2)
d|-101010101010101099999999888888887777777799999999888888887777777766666666-|
a|-101010101010101099999999888888887777777799999999888888887777777766666666-|
F|--------------------------------------------------------------------------|
C|--------------------------------------------------------------------------|
G|--------------------------------------------------------------------------|
D|--------------------------------------------------------------------------|
A|--------------------------------------------------------------------------|

d|-8888888877777777666666665555555544444444333333332222222211111111-|
a|-8888888877777777666666665555555544444444333333332222222211111111-|
F|------------------------------------------------------------------|
C|------------------------------------------------------------------|
G|------------------------------------------------------------------|
D|------------------------------------------------------------------|
A|------------------------------------------------------------------|
Comments