Korn - When Will This End Chords & Tabs

 

When Will This End Chords & Tabs

Korn Chords & Tabs

Version: 2 Type: Tab 0 ratings
1 star 2 stars 3 stars 4 stars 5 stars
comments

When Will This End Tab

   
Band- Korn
Song- When Will This End

Tuning low to high-A D G C F A D
Tempo-Somewhere around 87-88 bpm I think.  Best thing to do is listen to the song.
b-bend
~ let ring
pm-palm muting
h-hammer on
\-slide down
/-slide up

For most of the song use a distorted chorus.

Intro-Both Guitars
d-----------------------------------------|
a-----------------------------------------|
F-----------------------------------------|
C-----------------------------------------|     x4
G-----------------------------------------|
D-----2---5---4-4-3-2-----5---4-4-4-3-----|
A-----0---3---2-2-1-0---0-3---2-2-2-1-----|


d----------------------------------------------|
a----------------------------------------------|
F----------------------------------------------|
C----------------------------------------------|     x4
G----------------------2b----------------------|
D-----2---5------------------2b~~~~----(2)-----|
A-----0---3---2-2-0------0---------------------|


pm   .....              .....              .....
d---------------------------------------------------|
a---------------------------------------------------|
F---------------------------------------------------|
C---------------------------------------------------|     x1
G-----2-2----------------2-2----------------2-2-----|
D-----2-2----------------2-2----------------2-2-----|
A-----0-0----------------0-0----------------0-0-----|


Verse-Play the first part of the three part intro 4x w/pm, then 4x w/o pm.


Chorus
Guitar 1
pm                         ................                         ..........
d---------------------------------------------------------------------------------|
a---------------------------------------------------------------------------------|
F---------------------------------------------------------------------------------|
C---------------------------------------------------------------------------------|     x4
G-----2--------7---6-----------1---2---3h4----2--------7----6----------2---3b~~~--|
D-----2--------7---6--------------------------2--------7----6---------------------|
A-----0--------5---4--------0---0---0---------0--------5----4--------0---0--------|


Guitar 2
d-----------------7-7-7-7-7-7-7-7-7-7-------------------------------------|
a-----7-7-7-7-7-7-x-x-x-x-x-x-x-x-x-x-7-7-7-7-7-7-8-8-8-8-8-8-5-5-5-5-----|
F-----x-x-x-x-x-x-4-4-4-4-4-4-4-4-4-4-x-x-x-x-x-x-x-x-x-x-x-x-x-x-x-x-----|
C-----4-4-4-4-4-4---------------------4-4-4-4-4-4-5-5-5-5-5-5-2-2-2-2-----|
G-------------------------------------------------------------------------|
D-------------------------------------------------------------------------|
A-------------------------------------------------------------------------|

d-----------------5-5-5-5-5-5-5-5-5-5-------------------------------------|
a-----4-4-4-4-4-4-x-x-x-x-x-x-x-x-x-x-7-7-7-7-7-7-8-8-8-8-5-5-5-5-5-5-----|
F-----x-x-x-x-x-x-2-2-2-2-2-2-2-2-2-2-x-x-x-x-x-x-x-x-x-x-x-x-x-x-x-x-----|
C-----1-1-1-1-1-1---------------------4-4-4-4-4-4-5-5-5-5-2-2-2-2-2-2-----|
G-------------------------------------------------------------------------|
D-------------------------------------------------------------------------|
A-------------------------------------------------------------------------|
[ Tab from: http://www.guitartabs.cc/tabs/k/korn/when_will_this_end_tab_ver_2.html ]
d-----------------7-7-7-7-7-7-7-7-7-7-------------------------------------|
a-----7-7-7-7-7-7-x-x-x-x-x-x-x-x-x-x-7-7-7-7-7-7-8-8-8-8-8-8-5-5-5-5-----|
F-----x-x-x-x-x-x-4-4-4-4-4-4-4-4-4-4-x-x-x-x-x-x-x-x-x-x-x-x-x-x-x-x-----|
C-----4-4-4-4-4-4---------------------4-4-4-4-4-4-5-5-5-5-5-5-2-2-2-2-----|
G-------------------------------------------------------------------------|
D-------------------------------------------------------------------------|
A-------------------------------------------------------------------------|

d-----------------5-5-5-5-5-5-5-5-5-5-------------------------------------|
a-----4-4-4-4-4-4-x-x-x-x-x-x-x-x-x-x-7-7-7-7-7-7-8-8-8-8-5~~~~~~---------|
F-----x-x-x-x-x-x-2-2-2-2-2-2-2-2-2-2-x-x-x-x-x-x-x-x-x-x-x---------------|
C-----1-1-1-1-1-1---------------------4-4-4-4-4-4-5-5-5-5-2~~~~~----------|
G-------------------------------------------------------------------------|
D-------------------------------------------------------------------------|
A-------------------------------------------------------------------------|


Verse
Chorus

Interlude/Bridge
Guitar 2
d-----7~~~~~~~~-----------------------------------------------------|
a-----4~~~~~~~~-----------------------------------------------------|
F-----4~~~~~~~~------------------------11---14~~~~~~~~--------------|
C-------------------------------------------12~~~~~~~~--------------|
G-------------------------------------------------------------------|
D-------------------------------------------------------------------|
A-------------------------------------------------------------------|

For this part I don't know what they used, but I think a pitch shifter with slight
distortion makes it sound good.
d---------------------------------9~~--10~~\------------------------------------------|
a--------10----12~~~~-------10-----------------------10----12~~~~-------11----10~~\---|
F-----11----11-----------11----11-----------------11----11-----------11----11---------|
C-------------------------------------------------------------------------------------|
G-------------------------------------------------------------------------------------|
D-------------------------------------------------------------------------------------|
A-------------------------------------------------------------------------------------|

d---------------------------------9~~--10~~\----------------------------------10~~--9~~--|
a--------10----12~~~~-------10-----------------------10----12~~~~-------10-10------------|
F-----11----11-----------11----11-----------------11----11-----------11------------------|
C----------------------------------------------------------------------------------------|
G----------------------------------------------------------------------------------------|
D----------------------------------------------------------------------------------------|
A----------------------------------------------------------------------------------------|

During the bridge, guitar 1 plays these creepy background sounds and the palm muted
A5 chords.  Use a pitch shifter for the creepy sounds and chorus for the A5 chords.
pm                                                    .....
d-----13~~~~-----------------12\------/13----------------------|
a-------------------11\------------------------14~~------------|
F--------------------------------------------------------------|
C--------------------------------------------------------------|
G------------------------------------------------------2-2-----|
D------------------------------------------------------2-2-----|
A------------------------------------------------------0-0-----|


Play this once after a slight pause after the bridge
d-----------------------------|
a-----------------------------|
F-----------------------------|
C-----------------------------|
G-----2b----------------------|
D-----------2b~~~~----(2)-----|
A-----------------------------|


Play the second part of the intro 7x.
Play the first part of the intro 4x.
Play the chorus, then fade out.

ENJOY!!!!!
Comments