Korn - Wake Up Chords & Tabs

 

Wake Up Chords & Tabs

Korn Chords & Tabs

Version: 1 Type: Bass Tab 0 ratings
1 star 2 stars 3 stars 4 stars 5 stars
comments

Wake Up Bass Tab

   
Korn - Wake Up

Album - Issues

Tabbed By - Troy Irwin (irwint@alphalink.com.au)

Tunning - Low to high A D G C F 

This tab is a correction the previous one was wrong
[ Tab from: http://www.guitartabs.cc/tabs/k/korn/wake_up_btab.html ]
F ||-------------------------------------|
C ||-------------------------------------|
G ||-------------------------------------|
D ||------------------3------------------|
A ||-2h302-02h302-02h3-02h302-02h302-010-|
     s  ss ss  ss ss  fss  ss ss  ss sss


F ||------------------------------|
C ||--------------4h5p4-----------|
G ||--4-4-4-6-5-4-----------------|
D ||------------------------------|
A ||------------------------------|


F ||---------------------|
C ||---------------------|
G ||--4-4-4-6-5-4-3-2----|
D ||---------------------|
A ||---------------------|

***Thanks goes to Scott Evans for the original tab I just fixed it up a little.***

Comments