Korn - Twisted Transistor Chords & Tabs

 

Twisted Transistor Chords & Tabs

Korn Chords & Tabs

Version: 1 Type: Bass Tab

Twisted Transistor Bass Tab

   
-------------------------------------------------------------------------------                       
                        TWISTED TRANSISTOR - KoRn
-------------------------------------------------------------------------------

Tabbed By : KoRnKid89
e-mail: XblytheX89@aol.com

Tuning: ADGCF
 
  Intro:  
F|-----------------------------|
C|-----------------------------|
G|-----------------------------|
D|-----------------------------|
A|--3-3-------3-3-----3-3-4-3--|(x4)
(played first two times with fuzz distortion)

  Verse:                             
F|----------------|-------------|----------------|----------------|
C|----------------|-------------|----------------|----------------|
G|----------------|-------------|----------------|----------------|
D|----------------|-------------|----------------|----------------|
A|--3-3-(hold)\x--|--1--3----x--|--3-3-(hold)\x--|--3-3-(hold)\x--|(x2)

  Pre-Chorus:
F|---------------|---------------|---------------|---------------|     
C|---------------|---------------|---------------|---------------|     
G|---------------|---------------|---------------|---------------|     
D|-----3------4--|-----1------1--|-----3------4--|-----1------1--|    
A|--3------3-----|--3------3-----|--3------3-----|---------------|
[ Tab from: http://www.guitartabs.cc/tabs/k/korn/twisted_transistor_btab.html ]
F|---------------|
C|---------------|
G|---------------|
D|---------------|
A|--x-3-x-4-x-5--|(x3)

  Chorus:
F|-----------------------------|
C|-----------------------------|
G|-----------------------------|
D|-----------------------------|
A|--3-3-------3-3-----3-3-4-3--|(x4)

  Bridge pt.1 (slap):
F|---------------------------|     |---------------------------|
C|---------------------------|     |---------------------------|
G|----5----------5-----------|     |----5----------5-----------|
D|---------------------------|     |---------------------------|
A|--3-----3-31---------------|(x3) |--3-----3-31-----5~---6~---|

  Bridge pt.2:                    
F|---------------------------|
C|---------------------------|
G|---------------------------|
D|--6~-------3~--------------|
A|--------------------x------|(x3)

  Final Chorus:
F|-----------------------------|     |-----------------------------|
C|-----------------------------|     |-----------------------------|
G|-----------------------------|     |-----------------------------|
D|-----------------------------|     |-----------------------------|
A|--3-3-------3-3-----3-3-4-3--|(x3) |--3-3-------3-3--------------|



| P  pop
| S  slap
| /  slide up
| \  slide down
| h  hammer-on
| p  pull-off
| ~  vibrato
| +  harmonic
| x  Mute note
===============================================================================