Korn - Twist Chords & Tabs

 

Twist Chords & Tabs

Korn Chords & Tabs

Version: 2 Type: Tab 0 ratings
1 star 2 stars 3 stars 4 stars 5 stars
comments

Twist Tab

Band: Korn
Song: Twist
Album: Life Is Peachy (Track 1)
Tuning: CGCFAD or ADGCFAD for 7-string, works for both...
* is palm muted

Verse:
--------------------------
--------12/15--------15\12
--------12/15--------15\12
--------------------------
-0-12-0-------0-12-0------
-0-12-0-------0-12-0------ repeat 5 times...
 *  * *       *  * *
[ Tab from: http://www.guitartabs.cc/tabs/k/korn/twist_tab_ver_2.html ]
Chorus number 1:
-----13-----13-----13-----13
-----13-----13-----13-----13
----------------------------
----------------------------
-000----000----000----000---
-000----000----000----000---
 ***    ***    ***    ***
Chorus number 2:
-----13-----13----13-----
-----13-----13----13-----
-------------------------
-------------------------
-000---0000----00----0000
-000---0000----00----0000
 ***   ****    **    ****

Song Order
Verse x5
Chorus 1
Verse x5
Chorus 2



this is by rob, Im me at kornfellow91 for comments
Comments