Korn - Twist Chords & Tabs

 

Twist Chords & Tabs

Korn Chords & Tabs

Version: 1 Type: Tab 0 ratings
1 star 2 stars 3 stars 4 stars 5 stars
comments

Twist Tab

   
Twist by KoRn
-------------
TAB by DJ Kyurre
7-String guitar tuned down one whole step (A,D,G,C,F,A,D)
Since korn have two ass kicking good guitarists, this was kinda tuff
to do without a 7-string, but i did it and tabbed it for 7-strings!!
I know who plays which parts from a clip i saw on TV, which rocked!!

MAIN RIFF
---------

Munky Part
----------

1|----------------------------------|----------------------------------|
2|--------11/12/13---------12/11/10-|--------11/12/13---------12/11/10-|
3|----------------------------------|----------------------------------|
4|---------9/10/11---------10/-9/-8-|---------9/10/11---------10/-9/-8-|
5|----------------------------------|----------------------------------|
6|----------------------------------|----------------------------------|
7|-0-0-0------------0-0-0-----------|-0-0-0------------0-0-0-----------|
  |-P.M-|          |-P.M-|           |-P.M-|          |-P.M-|
[ Tab from: http://www.guitartabs.cc/tabs/k/korn/twist_tab.html ]
Head Part
---------
                                                             |---PH---|            
1|----------------------------------|----------------------------------|
2|--------11/12/13---------12/22b\18|--------11/12/13------------------|
3|----------------------------------|----------------------------------|
4|---------9/10/11------------------|---------9/10/11---------9b--9--9-|
5|----------------------------------|----------------------------------|
6|----------------------------------|----------------------------------|
7|-0-0-0------------0-0-0-----------|-0-0-0------------0-0-0-----------|
  |-P.M-|          |-P.M-|           |-P.M-|          |-P.M-|

CHORUS?
-------

Munky Part
----------

1|----------------------|
2|----------------------|
3|--------14---------14-|
4|----------------------|
5|--------13---------13-|
6|----------------------|
7|-0-0-0------0-0-0-----|
  |-P.M-|    |-P.M-|

Head Part
---------

1|----------------------|
2|--------22---------22-|
3|----------------------|
4|--------20---------20-|
5|----------------------|
6|----------------------|
7|-0-0-0------0-0-0-----|
  |-P.M-|    |-P.M-|

And thats all folks! It sounds kinda damn close to me, but im biased!
But anyway, hope ya dig!

Comments