Korn - Trash Chords & Tabs

 

Trash Chords & Tabs

Korn Chords & Tabs

Version: 9 Type: Tab 0 ratings
1 star 2 stars 3 stars 4 stars 5 stars
comments

Trash Tab

   
Band- Korn
Song- Trash
Album- Issues

Gtr I (A D G C F A D) - 'Head - distorion'
Gtr II (A D G C F A D) - 'Munky - Overdriven'
Gtr III (A D G C F A D) - 'Head - Effect'

 Intro
  Q=96
  A5                        Bb5
 4/4
  Gtr I
  Q   E   Q       E   Q      Q    E   Q    E   Q
|-------------------------|-------------------------|
|-------------------------|-------------------------|
|---------4-----------4---|-----------4--------4----|
|-----4-----------4-------|-------4--------4--------|
|-2--(2)-(2)-----(2)-(2)--|--3---(3)-(3)--(3)-(3)---|
|-2--(2)-(2)-----(2)-(2)--|--3---(3)-(3)--(3)-(3)---|
|-0--(0)-(0)-----(0)-(0)--|--1---(1)-(1)--(1)-(1)---|
|
| Gtr II
| ~~~~~~~~~~~~~~~~~~~~~~~~~~~~~~~~~~~~~~~
| H          +E   Q.         Q.       Q    E   E  E
|-------------------------|-------------------------|
|-7----------(7)--5-------|-10--------8----7---7--5-|
|-------------------------|-------------------------|
|-------------------------|-------------------------|
|-------------------------|-------------------------|
|-------------------------|-------------------------|
|-------------------------|-------------------------|


  B5                        Bb5
  Q   E   Q       E   Q      Q   E   Q    E   Q
|-------------------------|--------------------------|
|-------------------------|--------------------------|
|---------4-----------4---|----------4--------4------|
|-----4-----------4-------|------4--------4----------|
|-4--(4)-(4)-----(4)-(4)--|--3--(3)-(3)--(3)-(3)-----|
|-4--(4)-(4)-----(4)-(4)--|--3--(3)-(3)--(3)-(3)-----|
|-2--(2)-(2)-----(2)-(2)--|--1--(1)-(1)--(1)-(1)-----|
|
| ~~~~~~~~~~~~~~~~~~~
| H          +E   Q.         Q   E   H           +E
|-------------------------|--------------------------|
|-7----------(7)--5-------|-10--12---8-----------(8)-|
|-------------------------|--------------------------|
|-------------------------|--------------------------|
|-------------------------|--------------------------|
|-------------------------|--------------------------|
|-------------------------|--------------------------|


   Verse 1
    N.C.(B)
    Gtr III
     E  S   E.   Q    E   E E    E  S   E.   E    E  E  E E
||--------[11]-------[9]----9-|-------[11]------------------|
||--14-14------[10]------10---|-14-14------[10]-[10]-9----9-|
||o---------------------------|------------------------11---|
||----------------------------|-----------------------------|
||o---------------------------|-----------------------------|
||----------------------------|-----------------------------|
||----------------------------|-----------------------------|
|
|    <                           >
|    TP                          TP
|    W                           W
||----------------------------|-----------------------------|
||---7------------------------|--6--------------------------|
||o---------------------------|-----------------------------|
||----------------------------|-----------------------------|
||o---------------------------|-----------------------------|
||----------------------------|-----------------------------|
||----------------------------|-----------------------------|


   E  S   E.   Q    E   E E    E  S   E.   E    E  E  E   E   3x
|-------[11]-------[9]----9-|-------[11]----------------------||
|-14-14------[10]------10---|-14-14------[10]-[10]-9----[14]--||
|---------------------------|------------------------11------o||
|---------------------------|---------------------------------||
|---------------------------|--------------------------------o||
|---------------------------|---------------------------------||
|---------------------------|---------------------------------||
|
|  <                           >
|  TP                          TP
|  W                           W                              3x
|---------------------------|---------------------------------||
|--7------------------------|--6------------------------------||
|---------------------------|--------------------------------o||
|---------------------------|---------------------------------||
|---------------------------|--------------------------------o||
|---------------------------|---------------------------------||
|---------------------------|---------------------------------||


   Pre-Chorus
    $
    B5E5B5    E5B5E5B5  C5  B5E5B5    E5B5E5B5C5
    Gtr I
    S S E S E S S S E E E   S S E S E S S S E Q
||------------------------|-----------------------||
||------------------------|-----------------------||
||o-----------------------|----------------------o||
||------------------------|-----------------------||
||o-----------------------|----------------------o||
||--4-2-4-4-4-2-4-2-4---5-|-4-2-4-4-4-2-4-2-4-5---||
||--2-2-2-2-2-2-2-2-2---3-|-2-2-2-2-2-2-2-2-2-3---||
|
|   S S E S E S S S E E E   S S E S E S S S E Q
||------------------------|-----------------------||
||------------------------|-----------------------||
||o-----------------------|----------------------o||
||------------------------|-----------------------||
||o-----------------------|----------------------o||
||--4-2-4-4-4-2-4-2-4---5-|-4-2-4-4-4-2-4-2-4-5---||
||--2-2-2-2-2-2-2-2-2---3-|-2-2-2-2-2-2-2-2-2-3---||


   Chorus
    A5                        Bb5
    Q   E   Q       E   Q      Q    E   Q    E   Q
||--------------------------|-------------------------|
||--------------------------|-------------------------|
||o---------4-----------4---|-----------4--------4----|
||------4-----------4-------|-------4--------4--------|
||o-2--(2)-(2)-----(2)-(2)--|--3---(3)-(3)--(3)-(3)---|
||--2--(2)-(2)-----(2)-(2)--|--3---(3)-(3)--(3)-(3)---|
||--0--(0)-(0)-----(0)-(0)--|--1---(1)-(1)--(1)-(1)---|
|
|   ~~~~~~~~~~~~~~~~~~~~~~~~~~~~~~~~~~~~~~~
|   H          +E   Q.         Q.       Q    E   E  E
||--------------------------|-------------------------|
||--7----------(7)--5-------|-10--------8----7---7--5-|
||o-------------------------|-------------------------|
||--------------------------|-------------------------|
||o-------------------------|-------------------------|
||--------------------------|-------------------------|
||--------------------------|-------------------------|


                                              To Coda
  B5                        Bb5
  Q   E   Q       E   Q      Q   E   Q    E   Q
|-------------------------|-----------------------------||
|-------------------------|-----------------------------||
|---------4-----------4---|----------4--------4--------o||
|-----4-----------4-------|------4--------4-------------||
|-4--(4)-(4)-----(4)-(4)--|--3--(3)-(3)--(3)-(3)-------o||
|-4--(4)-(4)-----(4)-(4)--|--3--(3)-(3)--(3)-(3)--------||
|-2--(2)-(2)-----(2)-(2)--|--1--(1)-(1)--(1)-(1)--------||
|
| ~~~~~~~~~~~~~~~~~~~
| H          +E   Q.         Q   E   H           +E
|-------------------------|-----------------------------||
|-7----------(7)--5-------|-10--12---8-----------(8)----||
|-------------------------|----------------------------o||
|-------------------------|-----------------------------||
|-------------------------|----------------------------o||
|-------------------------|-----------------------------||
|-------------------------|-----------------------------||


 Verse 2
  N.C.(B)
  Gtr III
   E  S   E.   Q    E   E E    E  S   E.   E    E  E  E E
|-------[11]-------[9]----9-|-------[11]------------------|
|-14-14------[10]------10---|-14-14------[10]-[10]-9----9-|
|---------------------------|------------------------11---|
|---------------------------|-----------------------------|
|---------------------------|-----------------------------|

|---------------------------|-----------------------------|
|---------------------------|-----------------------------|
|
|  <                           >
|  TP                          TP
|  W                           W
|---------------------------|-----------------------------|
|--7------------------------|--6--------------------------|
|---------------------------|-----------------------------|
|---------------------------|-----------------------------|
|---------------------------|-----------------------------|
|---------------------------|-----------------------------|
|---------------------------|-----------------------------|

[ Tab from: http://www.guitartabs.cc/tabs/k/korn/trash_tab_ver_9.html ]
   E  S   E.   Q    E   E E    E  S   Q    +S  H
|-------[11]-------[9]----9-|-------[11]--(11)------|
|-14-14------[10]------10---|-14-14-----------------|
|---------------------------|-----------------------|
|---------------------------|-----------------------|
|---------------------------|-----------------------|
|---------------------------|-----------------------|
|---------------------------|-----------------------|
|
|  <                           >
|  TP                          TP
|  W                           H               H
|---------------------------|-----------------------|
|--7------------------------|--6--------------------|
|---------------------------|-----------------------|
|---------------------------|-----------------------|
|---------------------------|-----------------------|
|---------------------------|-----------------------|
|---------------------------|-----------------------|


    N.C.(B)
     E  S   E.   Q    E   E E    E  S   E.   E    E  E  E E
||--------[11]-------[9]----9-|-------[11]------------------|
||--14-14------[10]------10---|-14-14------[10]-[10]-9----9-|
||o---------------------------|------------------------11---|
||----------------------------|-----------------------------|
||o---------------------------|-----------------------------|
||----------------------------|-----------------------------|
||----------------------------|-----------------------------|
|
|    <                           >
|    TP                          TP
|    W                           W
||----------------------------|-----------------------------|
||---7------------------------|--6--------------------------|
||o---------------------------|-----------------------------|
||----------------------------|-----------------------------|
||o---------------------------|-----------------------------|
||----------------------------|-----------------------------|
||----------------------------|-----------------------------|


                                                 D.S. al Coda
   E  S   E.   Q    E   E E    E  S   E.   E    E  E  E   E
|-------[11]-------[9]----9-|-------[11]------------------------||
|-14-14------[10]------10---|-14-14------[10]-[10]-9----[14]----||
|---------------------------|------------------------11--------o||
|---------------------------|-----------------------------------||
|---------------------------|----------------------------------o||
|---------------------------|-----------------------------------||
|---------------------------|-----------------------------------||
|
|  <                           >
|  TP                          TP
|  W                           W
|---------------------------|-----------------------------------||
|--7------------------------|--6--------------------------------||
|---------------------------|----------------------------------o||
|---------------------------|-----------------------------------||
|---------------------------|----------------------------------o||
|---------------------------|-----------------------------------||
|---------------------------|-----------------------------------||


   Breakdown
    &
    B5E5B5    E5B5E5B5E5Bb5 B5E5B5    E5B5E5B5E5Bb5
    Gtr I
    S S E S E S E S E S E   S S E S E S E S E S E  4x
||------------------------|------------------------||
||------------------------|------------------------||
||o-----------------------|-----------------------o||
||------------------------|------------------------||
||o-----------------------|-----------------------o||
||--4-2-4-4-4-2-4-2-4-2-3-|-4-2-4-4-4-2-4-2-4-2-3--||
||--2-2-2-2-2-2-2-2-2-2-1-|-2-2-2-2-2-2-2-2-2-2-1--||
|
|   Gtr II
|   S S E S E S E S E S E   S S E S E S E S E S E  4x
||------------------------|------------------------||
||------------------------|------------------------||
||o-----------------------|-----------------------o||
||------------------------|------------------------||
||o-----------------------|-----------------------o||
||--4-2-4-4-4-2-4-2-4-2-3-|-4-2-4-4-4-2-4-2-4-2-3--||
||--2-2-2-2-2-2-2-2-2-2-1-|-2-2-2-2-2-2-2-2-2-2-1--||


   Out-Chorus
    A5                        Bb5
    Q   E   Q       E   Q      Q    E   Q    E   Q
||--------------------------|-------------------------|
||--------------------------|-------------------------|
||o---------4-----------4---|-----------4--------4----|
||------4-----------4-------|-------4--------4--------|
||o-2--(2)-(2)-----(2)-(2)--|--3---(3)-(3)--(3)-(3)---|
||--2--(2)-(2)-----(2)-(2)--|--3---(3)-(3)--(3)-(3)---|
||--0--(0)-(0)-----(0)-(0)--|--1---(1)-(1)--(1)-(1)---|
|
|   ~~~~~~~~~~~~~~~~~~~~~~~~~~~~~~~~~~~~~~~
|   H          +E   Q.         Q.       Q    E   E  E
||--------------------------|-------------------------|
||--7----------(7)--5-------|-10--------8----7---7--5-|
||o-------------------------|-------------------------|
||--------------------------|-------------------------|
||o-------------------------|-------------------------|
||--------------------------|-------------------------|
||--------------------------|-------------------------|


  B5                        Bb5
  Q   E   Q       E   Q      Q   E   Q    E   Q       4x
|-------------------------|---------------------------||
|-------------------------|---------------------------||
|---------4-----------4---|----------4--------4------o||
|-----4-----------4-------|------4--------4-----------||
|-4--(4)-(4)-----(4)-(4)--|--3--(3)-(3)--(3)-(3)-----o||
|-4--(4)-(4)-----(4)-(4)--|--3--(3)-(3)--(3)-(3)------||
|-2--(2)-(2)-----(2)-(2)--|--1--(1)-(1)--(1)-(1)------||
|
| ~~~~~~~~~~~~~~~~~~~
| H          +E   Q.         Q   E   H           +E   4x
|-------------------------|---------------------------||
|-7----------(7)--5-------|-10--12---8-----------(8)--||
|-------------------------|--------------------------o||
|-------------------------|---------------------------||
|-------------------------|--------------------------o||
|-------------------------|---------------------------||
|-------------------------|---------------------------||


  A5                        Bb5
  Q   E   Q       E   Q      Q    E   Q    E   Q
|-------------------------|-------------------------|
|-------------------------|-------------------------|
|---------4-----------4---|-----------4--------4----|
|-----4-----------4-------|-------4--------4--------|
|-2--(2)-(2)-----(2)-(2)--|--3---(3)-(3)--(3)-(3)---|
|-2--(2)-(2)-----(2)-(2)--|--3---(3)-(3)--(3)-(3)---|
|-0--(0)-(0)-----(0)-(0)--|--1---(1)-(1)--(1)-(1)---|
|
| ~~~~~~~~~~~~~~~~~~~~~~~~~~~~~~~~~~~~~~~
| H          +E   Q.         Q.       Q    E   E  E
|-------------------------|-------------------------|
|-7----------(7)--5-------|-10--------8----7---7--5-|
|-------------------------|-------------------------|
|-------------------------|-------------------------|
|-------------------------|-------------------------|
|-------------------------|-------------------------|
|-------------------------|-------------------------|


  B5                        Bb5
  Q   E   Q       E   Q      Q   E   Q    E   Q
|-------------------------|---------------------------*|
|-------------------------|---------------------------*|
|---------4-----------4---|----------4--------4-------*|
|-----4-----------4-------|------4--------4-----------*|
|-4--(4)-(4)-----(4)-(4)--|--3--(3)-(3)--(3)-(3)------*|
|-4--(4)-(4)-----(4)-(4)--|--3--(3)-(3)--(3)-(3)------*|
|-2--(2)-(2)-----(2)-(2)--|--1--(1)-(1)--(1)-(1)------*|
|
| ~~~~~~~~~~~~~~~~~~~
| H          +E   Q.         Q   E   H           +E
|-------------------------|---------------------------*|
|-7----------(7)--5-------|-10--12---8-----------(8)--*|
|-------------------------|---------------------------*|
|-------------------------|---------------------------*|
|-------------------------|---------------------------*|
|-------------------------|---------------------------*|
|-------------------------|---------------------------*|


Duration Legend
---------------
W - whole; H - half; Q - quarter; E - 8th; S - 16th; T - 32nd; X - 64th; a - acciaccatura
+ - note tied to previous; . - note dotted; .. - note double dotted
Uncapitalized letters represent notes that are staccato (1/2 duration)
Irregular groupings are notated above the duration line
Duration letters will always appear directly above the note/fret number it represents the
duration for.  Duration letters with no fret number below them represent rests.  Multi-
bar rests are notated in the form Wxn, where n is the number of bars to rest for.  Low
melody durations appear below the staff

Tablature Legend
----------------
 h   - hammer-on
 p   - pull-off
 b   - bend
 pb  - pre-bend
 r   - bend release (if no number after the r, then release immediately)
 /\  - slide into or out of (from/to "nowhere")
 s   - legato slide
 S   - shift slide
  - natural harmonic
[n]  - artificial harmonic
n(n) - tapped harmonic
 ~   - vibrato
 tr  - trill
 T   - tap
 TP  - trem. picking
 PM  - palm muting
\n/  - tremolo bar dip; n = amount to dip
 \n  - tremolo bar down
 n/  - tremolo bar up
/n\  - tremolo bar inverted dip
 =   - hold bend; also acts as connecting device for hammers/pulls
 <>  - volume swell (louder/softer)
 x   - on rhythm slash represents muted slash
 o   - on rhythm slash represents single note slash

Misc Legend
-----------
 |  - bar
||  - double bar
||o - repeat start
o|| - repeat end
*|  - double bar (ending)
 :  - bar (freetime)
 $  - Segno
 &  - Coda
Tempo markers -  = BPM(8/16=s8/s16), where s8 = swing 8ths, s16 = swing 16ths


***************************************************************************************
* Generated using Power Tab Editor by Brad Larsen - http://powertab.guitarnetwork.org *
***************************************************************************************
Comments