Korn - Trash Chords & Tabs

 

Trash Chords & Tabs

Korn Chords & Tabs

Version: 8 Type: Tab 0 ratings
1 star 2 stars 3 stars 4 stars 5 stars
comments

Trash Tab

Artist:Korn
Song:Trash
Album:Issues
Tabber: Daniel- xxkRaZyKoRnFrEaKxx

this is for all those korn fans without a 7 string...

6 string tuned to standerd drop d tuning DADGBE

intro/chorus (Head)

------------------------------------------------------------------------|
-----/5--------3------/8------6-----5----3--/5--------3-----/8--10-6----|
------------------------------------------------------------------------|
------------------------------------------------------------------------|
------------------------------------------------------------------------|
------------------------------------------------------------------------|

-------------------|
-------------------|
-------------------|
-------------------| intro/chorus (munky)
--0--1--2--1-------|
--2--3--4--3-------|
[ Tab from: http://www.guitartabs.cc/tabs/k/korn/trash_tab_ver_8.html ]
-------------------------------------------------------|
-14-16-14-----14------14--16--14---------14------------|
-----------15----15----------------15-14----14---------|
-------------------------------------------------------| verse (Head)
-------------------------------------------------------|
-------------------------------------------------------|

-----------------------|
------------------12---|
-14-13-xxxx--14-13-----| verse (Munky)
-----------------------|
-----------------------|
-----------------------|

------------------------------|
------------------------------|
------------------------------|
------------------------------| pre chorus (head&Munky)
--2-0-2--0-2---0-2-0-2-----3--|
--4-0-4--0-4---0-4-0-4-----5--|

--------------------------------|
--------------------------------|
--------------------------------|
--------------------------------| bridge (head&Munky)
--2-0-2--0-2---0-2--0-2----0-1--|
--2-0-2--0-2---0-2--0-2----0-1--|

any comments e mail me at xxKornKidxx2003@yahoo.com
Comments