Korn - Trash Chords & Tabs

 

Trash Chords & Tabs

Korn Chords & Tabs

Version: 7 Type: Tab 0 ratings
1 star 2 stars 3 stars 4 stars 5 stars
comments

Trash Tab

band-korn
song-trash


Intro & Chorus:

d|-------0----0------0---0-------0---0-------0---0---|
a|-----0----0------0---0-------0---0-------0---0-----|
F|---------------------------------------------------|
C|---------------------------------------------------|	(Guitar1)
G|--2-----------3-----------44-----------3-----------|
D|--2-----------3-----------44-----------3-----------|
A|--0-----------1-----------22-----------1-----------|

d|-------------------------------|
a|--7--5-10-8-7-5-7--7\5-10-12-8-|
F|-------------------------------|
C|-------------------------------|	(Guitar2)
G|-------------------------------|
D|-------------------------------|
A|-------------------------------|

Verse:
(Guitar1)
d|-------------------------------------------------|-------------------------------------------------|
a|-------------------------------------------------|-------------------------------------------------|
F|11-11-11-11-11-11-11-11--10-10-10-10-10-10-10-10-|-11-11-11-11-11-11-11-11--10-10-10-10/14-14-14-13|
C|-------------------------------------------------|-------------------------------------------------|
G|-------------------------------------------------|-------------------------------------------------|
D|-------------------------------------------------|-------------------------------------------------|
A|-------------------------------------------------|-------------------------------------------------|

(Guitar2)
d|----11----------9-----11------9---|----11---------9-----11---------9--|
a|-------10----10----------10-9---9-|-------10-9-10----------10-9-------|
F|----------------------------------|-----------------------------------|
C|-11-------11-------11-------------|-11---------------11---------11----|
G|----------------------------------|-----------------------------------|
D|----------------------------------|-----------------------------------|
A|----------------------------------|-----------------------------------|

Bridge1:(Guitar1 & Guitar2)

d|-----------------------|---------------------|
a|-----------------------|---------------------|
F|-----------------------|---------------------|
C|-----------------------|---------------------|
G|--4-4-4-4-4-4-4-4-4--5-|-4-4-4-4-4-4-4-4-4-/5|
D|--4-4-4-4-4-4-4-4-4--5-|-4-4-4-4-4-4-4-4-4-/5|
A|--2-0-2-0-2-0-2-0-2--3-|-2-0-2-0-2-0-2-0-2-/3|

Chorus:(Guitar1 & Guitar2)

d|-------0----0------0---0-------0---0-------0---0---|
a|-----0----0------0---0-------0---0-------0---0-----|
F|---------------------------------------------------|
C|---------------------------------------------------|	(Guitar1)
G|--2-----------3-----------44-----------3-----------|
D|--2-----------3-----------44-----------3-----------|
A|--0-----------1-----------22-----------1-----------|

d|-------------------------------|
a|--7--5-10-8-7-5-7--7\5-10-12-8-|
F|-------------------------------|
C|-------------------------------|	(Guitar2)
G|-------------------------------|
D|-------------------------------|
A|-------------------------------|
[ Tab from: http://www.guitartabs.cc/tabs/k/korn/trash_tab_ver_7.html ]
Verse:
(Guitar1)
d|-------------------------------------------------|-------------------------------------------------|
a|-------------------------------------------------|-------------------------------------------------|
F|11-11-11-11-11-11-11-11--10-10-10-10-10-10-10-10-|-11-11-11-11-11-11-11-11--10-10-10-10/14-14-14-13|
C|-------------------------------------------------|-------------------------------------------------|
G|-------------------------------------------------|-------------------------------------------------|
D|-------------------------------------------------|-------------------------------------------------|
A|-------------------------------------------------|-------------------------------------------------|

(Guitar2)
d|----11----------9-----11------9---|----11---------9-----11---------9--|
a|-------10----10----------10-9---9-|-------10-9-10----------10-9-------|
F|----------------------------------|-----------------------------------|
C|-11-------11-------11-------------|-11---------------11---------11----|
G|----------------------------------|-----------------------------------|
D|----------------------------------|-----------------------------------|
A|----------------------------------|-----------------------------------|

Bridge1:(Guitar1 & Guitar2)

d|-----------------------|---------------------|
a|-----------------------|---------------------|
F|-----------------------|---------------------|
C|-----------------------|---------------------|
G|--4-4-4-4-4-4-4-4-4--5-|-4-4-4-4-4-4-4-4-4-/5|
D|--4-4-4-4-4-4-4-4-4--5-|-4-4-4-4-4-4-4-4-4-/5|
A|--2-0-2-0-2-0-2-0-2--3-|-2-0-2-0-2-0-2-0-2-/3|

Chorus:(Guitar1 & Guitar2)

d|-------0----0------0---0-------0---0-------0---0---|
a|-----0----0------0---0-------0---0-------0---0-----|
F|---------------------------------------------------|
C|---------------------------------------------------|	(Guitar1)
G|--2-----------3-----------44-----------3-----------|
D|--2-----------3-----------44-----------3-----------|
A|--0-----------1-----------22-----------1-----------|

d|-------------------------------|
a|--7--5-10-8-7-5-7--7\5-10-12-8-|
F|-------------------------------|
C|-------------------------------|	(Guitar2)
G|-------------------------------|
D|-------------------------------|
A|-------------------------------|

Bridge2:(Guitar1 & Guitar2)

d|------------------------|
a|------------------------|
F|------------------------|
C|------------------------|
G|-4\3/4-4-4-4-4-4-4-4-3--|
D|-4\3/4-4-4-4-4-4-4-4-3--|
A|-2\1/2-0-2-0-2-0-2-0-1--|

Chorus:(Guitar1 & Guitar2)

d|-------0----0------0---0-------0---0-------0---0---|
a|-----0----0------0---0-------0---0-------0---0-----|
F|---------------------------------------------------|
C|---------------------------------------------------|	(Guitar1)
G|--2-----------3-----------44-----------3-----------|
D|--2-----------3-----------44-----------3-----------|
A|--0-----------1-----------22-----------1-----------|

d|-------------------------------|
a|--7--5-10-8-7-5-7--7\5-10-12-8-|
F|-------------------------------|
C|-------------------------------|	(Guitar2)
G|-------------------------------|
D|-------------------------------|
A|-------------------------------|
Comments