Korn - Trash Chords & Tabs

 

Trash Chords & Tabs

Korn Chords & Tabs

Version: 1 Type: Tab 0 ratings
1 star 2 stars 3 stars 4 stars 5 stars
comments

Trash Tab

korn-trash
album-issues
Tuned Down One Whole Step (DGCFAd) 
 
(Intro and Chorus Guitars 1 and 2) 
 
d ||--------------------------------| 
A ||--------------------------------| 
F ||--------------------------------| 
C ||--4--4--4--2--7--9--5--4--2--4--| 
G ||--4--4--4--2--7--9--5--4--2--4--| 
D ||--2--2--2--0--5--7--3--2--0--2--| 
 
(Distortion w/ Flanger and/or Phaser) 
 
 
(Verse) 
 
d ||--9--11----------11------|  
A ||---------10--10------10--| 
F ||-------------------------| 
C ||-------------------------| 
G ||-------------------------| 
D ||-------------------------| 
 
(Clean with Chorus Effect) 
 
(Pre Chorus) 
 
d ||--------------------------------------------------| 
A ||--------------------------------------------------| 
F ||--6/5/6--6/5/6--6/5/6--7--6/5/6--6/5/6--6/5/6--5--| 
C ||--6/5/6--6/5/6--6/5/6--7--6/5/6--6/5/6--6/5/6--5--| 
G ||--4/3/4--4/3/4--4/3/4--5--4/3/4--4/3/4--4/3/4--3--| 
D ||--------------------------------------------------| 
 
(Heavy Distortion) 
 
(Chorus:See Intro) 
 


[ Tab from: http://www.guitartabs.cc/tabs/k/korn/trash_tab.html ]
Comments