Korn - Thoughtless Chords & Tabs

 

Thoughtless Chords & Tabs

Korn Chords & Tabs

Version: 8 Type: Tab 0 ratings
1 star 2 stars 3 stars 4 stars 5 stars
comments

Thoughtless Tab

d|------------------------------------------------------
A|------------------------------------------------------
F|------------------------------------------------------
C|------------------------------------------------------
G|------------------------------------------------------
D|----5----5---5---5----5--5---7----7----7----8-8-8-8---
A|---0--0 0------0--0-0-----0---0-0---0-----0-0---------


d|------------------------------------------------------
A|------------------------------------------------------
F|------------------------------------------------------
C|------------------------------------------------------
G|------------------------------------------------------
D|-----5-5---5--------5-5---5------7-7--7------8-8-8-8--
A|-0000----0-----0-0------0----00------0-00-------------
[ Tab from: http://www.guitartabs.cc/tabs/k/korn/thoughtless_tab_ver_8.html ]
Comments