Korn - Thoughtless Chords & Tabs

 

Thoughtless Chords & Tabs

Korn Chords & Tabs

Version: 4 Type: Tab 2 ratings
1 star 2 stars 3 stars 4 stars 5 stars
comments

Thoughtless Tab

Song: Thoughtless
Artist: Korn
Album: Untouchables

I got this from a tab book so it's 100% correct.

Intro
Guitar 1
-------------------------------------------------------------
-------------------------------------------------------------
-------------------------------------------------------------
-------------------------------------------------------------
--5-----5-------5-----5---------7-----7-------7------9-9-9-9-
0---0-0-----0-0---0-0-------0-0---0-0-----0-0----0-0---------

Guitar 2 with some kind of effect
I'm not sure about this part
---------------------
--10----14----7------
--x-----x-----x------
--7-----12----5------
---------------------
---------------------
[ Tab from: http://www.guitartabs.cc/tabs/k/korn/thoughtless_tab_ver_4.html ]
Verse (with distortion)(both guitars)
----------------------------------------------------------
----------------------------------------------------------
----------------------------------------------------------
----------7-------7-----7-------9-----9-------9-----10-10-10-10-
--6-6-6-6-5---0-0-5-0-0-5---0-0-7-0-0-7---0-0-7-0-0--8--8--8--8-
--4-4-4-4-----0-0---0-0-----0-0---0-0-----0-0---0-0------------
 "Thumbing through the pages of my fantasies!"

Repeat until you get to this..

-------------------------------------------
-------------------------------------------
-------------------------------------------
-------------------------------------------
-5-5-5-6-6-5-----5-5-5-6-6-6---------------
-3-3-3-4-4-3-----3-3-3-4-4-4---1-----------
 "Why are you trying to make fun of me?

Chorus (Both guitars)
---------------------------------------------------------------
---------------------------------------------------------------
---------------------------------------------------------------
-----------------5--5--5--5--5---------------------------------
--7--7--7--7--7--3--3--3--3--3--5--5--5--5--5---3--3--3--3--3--
--5--5--5--5--5-----------------3--3--3--3--3---1--1--1--1--1--
 "All.. all my hate can not be found.."

The song pretty much repeats itself.


















Comments