Korn - Thoughtless Chords & Tabs

 

Thoughtless Chords & Tabs

Korn Chords & Tabs

Version: 3 Type: Tab 0 ratings
1 star 2 stars 3 stars 4 stars 5 stars
comments

Thoughtless Tab

Korn
Thoughtless
from "Untouchables"
Written by KoRn
Transcribed by Ryan Crane
It sounds just like it so enjoi!
KEY:
~=3Dstring bend
/=3Dslide
[ Tab from: http://www.guitartabs.cc/tabs/k/korn/thoughtless_tab_ver_3.html ]
Down 1 whole step, low to High (6&7string)
Intro (Distortion)
e-----------------------------------------------------|
B-----------------------------------------------------|
G-----------------------------------------------------|
D-----------------------------------------------------|
A---------1------1-----1------2----2----2-----3-3-3-3-|
E-0-0-0-0-----0-0---0-0---0-0--0-0--0-0---0-0---------|
Second guitar plays mid way through intro (clean)
e---------7-------10-------6--|
B-------7-------10-------6----|
G-----9-------12-------8------|
D---9-------12-------8--------|
A-----------------------------|
E-----------------------------|
Verse (Heavy Distortion)
E--------------------------------------------------------------|
B--------------------------------------------------------------|
G------------7-----7-----7------9----9----9-----10-10-10-10----|
D---6-6-6-6--7-----7-----7------9----9----9-----10-10-10-10----|
B---6-6-6-6--5-----5-----5------7----7----7------8--8--8--8----|
E---4-4-4-4----0-0---0-0----0-0---0-0--0-0--0-0----------------|
Verse Guitar2 =20
E-----------------------------|
B--0/8--7--4---1/8--7--4--3---|
G-----------------------------|
D--0/5--4--1---4/5--4--1--0---|
A-----------------------------| =20
E-----------------------------|
Come and fill the pages...
Pre-Chorus (Heavy Distortion As Usual)
E-----------------------------------------------------|
B-----------------------------------------------------|
G-----------------------------------------------------|
D-----------------------------------------------------|
A--3-3-3--4-4-4-4--1-1--3-3-3--4-4-4-4--1-1--1-1--3---|
E--3-3-3--4-4-4-4--1-1--3-3-3--4-4-4-4--1-1--1-1--3---|
Pre-Chorus Guitar2
E--------------------------|
B--4-/-5-/-7-/-5-/-4-/-3---|
G--------------------------|
D--1-/-2-/-4-/-2-/-1-/-0---|
A--------------------------|
E--------------------------|
What are you trying to make fun of me!?!...
Chorus
E--------------------------------------------------------------------|
B--------------------------------------------------------------------|
G--------------------------------------------------------------------|
D-2-2-2-2--2-2}---5-5-5-5--5-5}--------------------------------------|
A-2-2-2-2--2-2}x2-5-5-5-5--5-5}x2--5-5-5-5--5-5}x2--3-3-3-3--3-3}x2--|
E-0-0-0-0--0-0}---3-3-3-3--3-3}----5-5-5-5--5-5}----3-3-3-3--3-3}----|
Chorus Guitar2
e-----------------------------------|
B--12-/14-/15-15/-10-12-/8-/10------|
G-----------------------------------|
D--9--/11-/12-12/-7--9--/5-/7-------|
A-----------------------------------|
E-----------------------------------|
All, all my hate...
Fill after second chorus
e----------------------------|
B----------------------------|
G----------------------------|
D----------------------------|
A-1-1-1~-1~-1~-1~-1-1-1------|
E----------------------------|
..All my friends are gone they died...


This is an awsome tab! Also remember to go out and pick up KoRn's
latest album "Untouchables." Its some new stuff but it still kills
its competition.
Comments