Korn - Thoughtless Chords & Tabs

 

Thoughtless Chords & Tabs

Korn Chords & Tabs

Version: 2 Type: Tab 0 ratings
1 star 2 stars 3 stars 4 stars 5 stars
comments

Thoughtless Tab

Song-Thoughtless
Band-Korn
Album-Untouchables
Tabber-Tony D'Angelo
E Mail-Disasterpiece300@aol.com
Trust me it works PERFECT


Intro (clean)

|----------------------------------------------------------------------|
|----------------------------------------------------------------------|
|----------------------------------------------------------------------|   
|----------------------------------------------------------------------|
|----------5--------5---------5-------7------7--------7-------8-8-8-8--|
|-0-0-0-0------0-0------0-0------0-0-----0-0-----0-0-----0-0-----------|


Intro 2 (clean w/ effect)

|--------------|
|-12--15--11/0-|
|--0---0--0/0--|
|--9--12--8/0--|    
|--------------|
|--------------|


Verse (distortion)

|---------------------------------------------------------------------------------|
|---------------------------------------------------------------------------------|
|----------7--------7--------7---------9---------9---------9---------10-10-10-10--|
|-6-6-6-6--7--------7--------7---------9---------9---------9---------10-10-10-10--|
|-6-6-6-6--5--------5--------5---------7---------7---------7----------8--8--8--8--|
|-4-4-4-4-----0-0-------0-0--------0-0------0-0--------0-0-------0-0--------------|


Pre-Chorus (distortion)

|------------------------------------------------------|
|------------------------------------------------------|
|------------------------------------------------------|
|-5-5-5--6-6-6-6--5----5-5-5--6-6-6-6--3-3-3-3-3-3-3-3-|    2x
|-5-5-5--6-6-6-6--5----5-5-5--6-6-6-6--3-3-3-3-3-3-3-3-|
|-3-3-3--4-4-4-4--3----3-3-3--4-4-4-4--1-1-1-1-1-1-1-1-|


Chorus (distortion)
[ Tab from: http://www.guitartabs.cc/tabs/k/korn/thoughtless_tab_ver_2.html ]
|-----------------------------------------------------------------------------------------------------|
|-----------------------------------------------------------------------------------------------------|
|-----------------------------------------------------------------------------------------------------|
|-6-6-6--6--6-6-6-6--6-8---9-9-9--9--9-9-9-9--9-9---4-4-4--4--4-4-4-4--4-4---2-2-2--2--2-2-2-2--2-2-4-|
|-6-6-6--6--6-6-6-6--6-8---9-9-9--9--9-9-9-9--9-9---4-4-4--4--4-4-4-4--4-4---2-2-2--2--2-2-2-2--2-2-4-|
|-4-4-4--4--4-4-4-4--4-6---7-7-7--7--7-7-7-7--7-7---2-2-2--2--2-2-2-2--2-2---0-0-0--0--0-0-0-0--0-0-2-|


Interlude (clean)

|------------------------------------------------------------------------------------------------------------------------------------------------------|
|------------------------------------------------------------------------------------------------------------------------------------------------------|
|------------------------------------------------------------------------------------------------------------------------------------------------------|
|------------------------------------------------------------------------------------------------------------------------------------------------------|
|-5-5-5-5-5-5-5-5-5-5-5-5-5-5-5-5-5-5--------7---------7---------8-8-8-8---------------5---------5---------5--------7--------7--------7-------8-8-8-8--|
|---------------------------------------0-0------0-0------0-0---------------0-0-0-0---------0-0------0-0-------0-0-------0-0-----0-0-----0-0-----------|



Interlude 2 (clean)

|--------------------------------------------------------------------|
|--------------------------------------------------------------------|
|--------------------------------------------------------------------|
|--------------------------------------------------------------------|
|-5-5-5-5-5-5-5-5-5-5-5-5-5-5-5-5-5-5--7-7-7-7-7-7-7-7-7-7-7-7-7-7-7-|
|--------------------------------------------------------------------|


Outro (clean w/ effects)

|--------|
|-11/0-|
|--0/0--|
|--8/0--|
|--------|
|--------|


Order

1.Intro-          3x
2.Intro 2-       3x
3.Verse-       6x
4.Pre-Chorus-2x
5.Chorus-      2x
6.Verse-       4x
7.Pre-Chorus-2x
8.Chorus-      2x
9.Interlude-    4x
10.Interlude 2-4x
11.Verse-      4x
12.Intro 2-     1x
13.Chorus-    4x
14.Outro-      1x
Comments