Korn - Thoughtless Chords & Tabs

 

Thoughtless Chords & Tabs

Korn Chords & Tabs

Version: 14 Type: Tab

Thoughtless Tab

   
KoRn - Thoughtless - Untouchables

Tabbed by Elvisz (elvisz@kornkids.com)
Tuning : 7 String Tuned Low to High (A D G C F A D)

Vocal: Jonathan Houseman Davis 'Hiv'
Guitar1: Brian Phillip Welch 'Head'
Guitar2: James Randal Shaffer 'Munky'
Bass: Reginald Arvizu 'Fieldy'
Drums: David Silveria

Intro:
d|------------|
a|------------|
F|------------|
C|-16--19--15>|	(Guitar2)
G|-14--17--13>|
D|-14--17--13>|
A|------------|

d|-------------------------|
a|-------------------------|
F|-------------------------|
C|-------------------------| (Guitar1)	
G|-----------________---__-|	
D|-55555555-^55555555-^^55-|
A|-------------------------|

Verse1:
At the start guitar1 and guitar2 plays this after that guitar1 plays verse2
d|-------------------------------------------------------|
A|-------------------------------------------------------|
F|-------------------------------------------------------|
C|---------7------7----7----9----9-----9-----10-10-10-10-|
G|-6-6-6-6-7------7----7----9----9-----9-----10-10-10-10-|
D|-6-6-6-6-5------5----5----7----7-----7-----8--8--8--8--|
A|-4-4-4-4-----0-0--0-0--0-0--0-0---0-0---0-0------------|

Verse2:
d|----------------------------|
a|----------------------------|
F|-11>-11>-8>---11>-11>-7>-8>-|
C|-xx--xx--x----xx--xx--x--x--|		(Guitar1)
G|- 9>- 9>-6>--- 9>- 9>-5>-6>-|
D|----------------------------|
A|----------------------------|

Pre-Chorus:
d|--------------------------------------------|
a|--------------------------------------------|
F|--------------------------------------------|
C|--------------------------------------------|		(Guitar2)
G|-5-5-5/6-6-6-6/5-----5-5-5/6-6-6-6-3~----(2)|
D|-5-5-5/6-6-6-6/5-----5-5-5/6-6-6-6-3~----(2)|
A|-3-3-3/4-4-4-4/3-----3-3-3/4-4-4-4-1~----(0)|

d|------------|
a|------------|
F|-8>-9>--11>-|
C|-x--x---xx--|	(Guitar1)
G|-6>-7>-- 9>-|
D|------------|
A|------------|

Chorus:
(Guitar2)
d|---------------------------------------------------------------------------------|
a|---------------------------------------------------------------------------------|
F|---------------------------------------------------------------------------------|
C|---------------------------------------------------------------------------------|
G|-7--777-7-777--77-7/10--101010-10-101010-1010-10\5-555-5-555-55--5\3-3333-33/5---|
D|-7--777-7-777--77-7/10--101010-10-101010-1010-10\5-555-5-555-55--5\3-3333-33/5---|
A|-5--555-5-555--55-5/8---8-8-8--8--8-8-8--8-8--8 \3-333-3-333-33--3\1-1111-11/3---|
  
(Guitar1 tremolo picked)
d|-------------------------------------|
a|-------------------------------------|
F|-16--17--19--21-19-14---16-12--12/14-|
C|-xx--xx--xx--xx-xx-xx---xx-xx--xxxxx-|
G|-14--15--17--19-17-12---14-10--10/12-|
D|-------------------------------------|
A|-------------------------------------|

Repeat Verse1:
At the start guitar1 and guitar2 plays this after that guitar1 plays verse2
d|-------------------------------------------------------|
A|-------------------------------------------------------|
F|-------------------------------------------------------|
C|---------7------7----7----9----9-----9-----10-10-10-10-|
G|-6-6-6-6-7------7----7----9----9-----9-----10-10-10-10-|
D|-6-6-6-6-5------5----5----7----7-----7-----8--8--8--8--|
A|-4-4-4-4-----0-0--0-0--0-0--0-0---0-0---0-0------------|
[ Tab from: http://www.guitartabs.cc/tabs/k/korn/thoughtless_tab_ver_14.html ]
Verse2:
d|----------------------------|
a|----------------------------|
F|-11>-11>-8>---11>-11>-7>-8>-|
C|-xx--xx--x----xx--xx--x--x--|		(Guitar1)
G|- 9>- 9>-6>--- 9>- 9>-5>-6>-|
D|----------------------------|
A|----------------------------|

Pre-Chorus:
d|--------------------------------------------|
a|--------------------------------------------|
F|--------------------------------------------|
C|--------------------------------------------|		(Guitar2)
G|-5-5-5/6-6-6-6/5-----5-5-5/6-6-6-6-3~----(2)|
D|-5-5-5/6-6-6-6/5-----5-5-5/6-6-6-6-3~----(2)|
A|-3-3-3/4-4-4-4/3-----3-3-3/4-4-4-4-1~----(0)|

d|------------|
a|------------|
F|-8>-9>--11>-|
C|-x--x---xx--|	(Guitar1)
G|-6>-7>-- 9>-|
D|------------|
A|------------|

Chorus:
(Guitar2)
d|---------------------------------------------------------------------------------|
a|---------------------------------------------------------------------------------|
F|---------------------------------------------------------------------------------|
C|---------------------------------------------------------------------------------|
G|-7--777-7-777--77-7/10--101010-10-101010-1010-10\5-555-5-555-55--5\3-3333-33/5---|
D|-7--777-7-777--77-7/10--101010-10-101010-1010-10\5-555-5-555-55--5\3-3333-33/5---|
A|-5--555-5-555--55-5/8---8-8-8--8--8-8-8--8-8--8 \3-333-3-333-33--3\1-1111-11/3---|
  
(Guitar1 tremolo picked)
d|-------------------------------------|
a|-------------------------------------|
F|-16--17--19--21-19-14---16-12--12/14-|
C|-xx--xx--xx--xx-xx-xx---xx-xx--xxxxx-|
G|-14--15--17--19-17-12---14-10--10/12-|
D|-------------------------------------|
A|-------------------------------------|

Fill1:
d|-------------------------|
a|-------------------------|
F|-------------------------|
C|-------------------------| (Guitar1)	
G|-----------________---__-|	
D|-55555555-^55555555-^^55-|
A|-------------------------|

d|--------------------------------------------|
a|--------------------------------------------|
F|--------------------------------------------|
C|--------------------------------------------|		(Guitar2)
G|--------------------------------------------|
D|----7----7------7----8-8-8-8---5--5--5----5-|
A|-0-0--0-0----0-0--0-0---------0--0--0--0-0--|

Verse1 again:
d|-------------------------------------------------------|
a|-------------------------------------------------------|
F|-------------------------------------------------------|
C|---------7------7----7----9----9-----9-----10-10-10-10-|	(Guitar1)
G|-6-6-6-6-7------7----7----9----9-----9-----10-10-10-10-|
D|-6-6-6-6-5------5----5----7----7-----7-----8--8--8--8--|
A|-4-4-4-4-----0-0--0-0--0-0--0-0---0-0---0-0------------|

While Guitar2:
d|------------|
a|------------|
F|------------|
C|-16--19--15>|	(Guitar2)
G|-14--17--13>|
D|-14--17--13>|
A|------------|

Chorus:
(Guitar2)
d|---------------------------------------------------------------------------------|
a|---------------------------------------------------------------------------------|
F|---------------------------------------------------------------------------------|
C|---------------------------------------------------------------------------------|
G|-7--777-7-777--77-7/10--101010-10-101010-1010-10\5-555-5-555-55--5\3-3333-33/5---|
D|-7--777-7-777--77-7/10--101010-10-101010-1010-10\5-555-5-555-55--5\3-3333-33/5---|
A|-5--555-5-555--55-5/8---8-8-8--8--8-8-8--8-8--8 \3-333-3-333-33--3\1-1111-11/3---|
  
(Guitar1 tremolo picked)
d|-------------------------------------|
a|-------------------------------------|
F|-16--17--19--21-19-14---16-12--12/14-|
C|-xx--xx--xx--xx-xx-xx---xx-xx--xxxxx-|
G|-14--15--17--19-17-12---14-10--10/12-|
D|-------------------------------------|
A|-------------------------------------|

Outro:(Guitar2)
d|------|
a|------|
F|------|
C|-15->-|
G|-13->-|
D|-13->-|
A|------|