Korn - Thoughtless Chords & Tabs

 

Thoughtless Chords & Tabs

Korn Chords & Tabs

Version: 12 Type: Tab 0 ratings
1 star 2 stars 3 stars 4 stars 5 stars
comments

Thoughtless Tab

I figured that since all of Korn's tabs are either tuned differently or in
7-string format, i decided that i would make a much easier way of playing
this song.  I am almost 100% sure that it sounds right.  Anyways, check this out.
Tuning:EADGBe

~=let the note ring out
                              *INTRO*
e|--------------------------------------------------------------------------|
B|--------------------------------------------------------------------------|
G|--------------------------------------------------------------------------|
D|--------------------------------------------------------------------------|
A|----5----5----5----5----7----7----7----8888-------------------------------|
E|--0---00---00---00---00---00---00---00------------------------------------|
[ Tab from: http://www.guitartabs.cc/tabs/k/korn/thoughtless_tab_ver_12.html ]
                              *CHORDS*
e|--------------------------------------------------------------------------|
B|--------------------------------------------------------------------------|
G|-----9~-----12~-----8~----------------------------------------------------|
D|-----x------x-------x-----------------------------------------------------|
A|-----7~-----10~-----6~----------------------------------------------------|
E|--------------------------------------------------------------------------|

                              *VERSE*
e|--------------------------------------------------------------------------|
B|--------------------------------------------------------------------------|
G|-------------7----7----7----7----9----9----9----10-10-10-10---------------|
D|--6-6-6-6----7----7----7----7----9----9----9----10-10-10-10---------------|
A|--6-6-6-6----5----5----5----5----7----7----7-----8--8--8--8---------------|
E|--4-4-4-4-00---00---00---00---00---00---00---00---------------------------|

                              *CHORUS* 
note: just chords, not how many times you strum the part
e|--------------------------------------------------------------------------|
B|--------------------------------------------------------------------------|
G|-----------5--------------------------------------------------------------|
D|-----7-----5-----5-----3--------------------------------------------------|
A|-----7-----3-----5-----3--------------------------------------------------|
E|-----5-----------3-----1--------------------------------------------------|

*That should be very close to the real thing.
Comments