Korn - Thoughtless Chords & Tabs

 

Thoughtless Chords & Tabs

Korn Chords & Tabs

Version: 10 Type: Tab 0 ratings
1 star 2 stars 3 stars 4 stars 5 stars
comments

Thoughtless Tab

   
-------------------------------------------------------------------------------
			     Thoughtless- KoRn
-------------------------------------------------------------------------------
                                  Untouchables
Tabbed by:LukeCG

Tuning: A D G C F A(Six string)
I wrote this tab in six string form because I know KoRn use seven stringed
guitars but in this song they donít use the high E string.
BPM:78 Moderate
Note: All spaces on this tab represent sixteenth notes(except for when the notes
are two numbers long. Also some of the lines are rather long so there may be some
wraparound to avoid this before you print it off copy it to a word processor and
lower the font to 8  

INTRO:x1
Gtr 1(clean elec w/delay)
   PM_______________________________
A||----------------------------------||
F||----------------------------------||
C||----------------------------------||
G||----------------------------------||
D||--5--5----5--5----7--7----7--8888-||
A||-0-00---00-00---00-00---00-00-----||

Gtr 2(clean elec w/delay effect)    x4
a||----------------------------------||
F||----------------------------------||
C||*--------------------------------*||
G||*--------------------------------*||
D||--5555555--555555-7777777-7778888-||
A||----------------------------------||
       ^~~     ^~~     ^~~
Gtr 1                               x2
  PM_________________________________
a||----------------------------------||
F||----------------------------------||
C||*--------------------------------*||
G||*--------------------------------*||
D||--5--5----5--5----7--7----7--8888-||
A||-0-00---00-00---00-00---00-00-----||

Gtr 3(clean elec w/harmonizer effect)x3
A||----------------------------------||
F||----------------------------------||
C||(9-----(12------(8----)--)--------||
G||-x------xx-------x----)--)--------||
D||(7-----(10------(6----)--)------x-||
A||----------------------------------||
                    |--------|

Gtr 1 (w/dist)
          PM __ ___ __ ____ __
a||--------------------------------------||
F||--------------------------------------||
C||--------------------------------------||
G||----7----7--7---9ó-9----9--10101010---||
D||66665----5--5---7--7----7--8-8-8-8----||
A||4444---00-00--00-00---00-00-----------||

VERSES:x1
Gtr 1
          PM __   __ __   __ __         x5
a||--------------------------------------||
F||--------------------------------------||
C||*------------------------------------*||
G||*---7----7--7----9--9----9--10101010-*||
D||-6665----5--5----7--7----7--8-8-8-8---||
A||-444---00-00---00-00---00-00----------||

Gtr 2 (w/moderately fast modulation)
a|-(13-------(12--------------------------(13-------(12--------------------------|
F|---------------------(13------------------------------------(12----------(13---|
C|-------------------------------------------------------------------------------|
G|-------------------------------------------------------------------------------|
D|-------------------------------------------------------------------------------|
A|-------------------------------------------------------------------------------|

a|-(13-------(12--------------------------(13-------(12-------------------------|
F|---------------------(13------------------------------------(12---------------|
C|------------------------------------------------------------------------------|
G|------------------------------------------------------------------------------|
D|------------------------------------------------------------------------------|
A|------------------------------------------------------------------------------|

PRE CHORUS:x1
Gtr 1 (w/dist) 
a|------------------------------------------------------------------|
F|------------------------------------------------------------------|
C|------------------------------------------------------------------|
G|------------------------------------------------------------------|
D|---5566665---------5566666---------5566665---------5566666---4----|
A|--03344443--------033444441-------03344443--------033444442--21---|
                            |------|                            |--|
[ Tab from: http://www.guitartabs.cc/tabs/k/korn/thoughtless_tab_ver_10.html ]
Gtr 2 (w/dist)
a|-----------------------------------------------------------------------------|
F|--888899991111111111111111118889999911/1212121212128889999111111111111111111-|
C|--xxxxxxxx-x-x-x-x-x-x-x-x-xxxxxxxxx-x/-x-x-x-x-x-xxxxxxxx-x-x-x-x-x-x-x-x-x-|
G|--66667777-9-9-9-9-9-9-9-9-966677777-9/1010101010106667777-9-9-9-9-9-9-9-9-9-|
D|-----------------------------------------------------------------------------|
A|-----------------------------------------------------------------------------|

a|---------------------------|
F|--88899991111-1212121212---|
C|--xxxxxxx-x-x--x-x-x-x-x---|
G|--6667777-9-9-1010101010---|
D|---------------------------|
A|---------------------------|

CHORUS:x2
Gtr 1 (w/dist)
a|-----------------------------------|
F|-----------------------------------|
C|-----------------------------------|
G|-----------------5555-5-55555-5-5--|
D|-7777-7-77777-7-73333-3-33333-3-3--|
A|-5555-5-55555-5-5------------------|

Gtr 2 (w/dist)
a|------------------------------------------------------------------|
F|-1616161616161616161616161717171719191919191919191919191921212121-|
C|--x-x-x-x-x-x-x-x-x-x-x-x-x-x-x-x-x-x-x-x-x-x-x-x-x-x-x-x-x-x-x-x-|
G|-1414141414141414141414141515151517171717171717171717171719191919-|
D|------------------------------------------------------------------|
A|------------------------------------------------------------------|

Gtr 1
a|-----------------------------------|
F|-----------------------------------|
C|-----------------------------------|
G|-----------------------------------|
D|-5555-5-55555-5-53333-3-33333-3-3--|
A|-3333-3-33333-3-31111-1-11111-1-1--|

Gtr 2
a|------------------------------------------------------------------|
F|-1414141414141414141414141616161612121212121212121212121214141414-|
C|--x-x-x-x-x-x-x-x-x-x-x-x-x-x-x-x-x-x-x-x-x-x-x-x-x-x-x-x-x-x-x-x-|
G|-1212121212121212121212121414141410101010101010101010101012121212-|
D|------------------------------------------------------------------|
A|------------------------------------------------------------------|
 
  
  BRIDGE:
  Gtr. 1 (clean elec W/delay)
  P.M.   _______________________________________________________
a|------|------------------|------------------------------------|
F|--4---|------------------|------------------------------------|
C|-beat-|------------------|*----------------------------------*|
G|-rest-|------------------|*----------------------------------*|
D|------|--7--7----7--8888-|---5--5----5--5----7--7----7--8888--|
A|------|-0-00---00-00-----|--0-00---00-00---00-00---00-00------|
                           |============Repeat=x3===============|

Gtr. 2 (clean elec. w/delay)
a|------------------------------------|
F|------------------------------------|
C|*----------------------------------*|
G|*----------------------------------*| x6
D|--5555555--5555555-7777777-7778888--|
A|------------------------------------|
       ^~~      ^~~     ^~~

Gtr. 1 (w/dist.)                             
a|-----------------------------------------|
F|-----------------------------------------|
C|*---------------------------------------*|
G|*-----7----7--7----9--9----9--10101010--*| x4
D|--66665----5--5----7--7----7---8-8-8-8---|
A|--4444---00-00---00-00---00-00-----------|

Gtr. 2 (w/harmonizer effect) Comes in on Gtr. Ones^ third time
a|--------------------------------------|
F|--------------------------------------|
C|*----------12--------8---------------*|
G|*-----------x--------x---------------*|x2
D|-----------10--------6----------------|
A|--------------------------------------|

Gtr. 2
a|---------------------------------------------|
F|---------------------------------------------|
C|-(9---))x(12----------------(8----))))))))))-|
G|--x--------x-----------------x---------------|
D|-(7---))x(10----------------(6----))))))))))-|
A|---------------------------------------------|
   |-----| |-----------------||--------------|

| /  slide up
| \  slide down
| h  hammer-on
| p  pull-off
| x  Mute note
| (  Scoop Note(Trem)
| )  Dive note (Trem)
| PM Palm Mute
| ^ Bend
| ~ Hold Bend
| - Hold note  
=============================================================================
Comments