Korn - Thoughtless Chords & Tabs

 

Thoughtless Chords & Tabs

Korn Chords & Tabs

Version: 1 Type: Tab 0 ratings
1 star 2 stars 3 stars 4 stars 5 stars
comments

Thoughtless Tab

Song: Thoughtless_#2
Band: KoRn
Album: Untouchables
Tabbed By: I_shot2Pac666

\-/ = Slide
* = Chorus

A/------0-0------0-0------0-0------0-0------0-0------0-0------0-0------0-0--------/ Open Riff : clean
D/-----------5--------5--------5---------5--------7--------7---------7--------8-8-8-8/  Repeat 3x
G/----------------------------------------------------------------------------------------/
C/----------------------------------------------------------------------------------------/

A/-------5-5-5--------5-5-----5-5-----5-5-----5-5-----5-5-----5-5-----------------/  VERSE:
D/-------7-7-7--5-----7-7--5--7-7--5--7-7--7--7-7--7--7-7--7--7-7---8--8--8---8/  Distortion
G/-------7-7-7--7-----7-7--7--7-7--7--7-7--9--7-7--9--7-7--9--9-7--10-10-10--10/  Repeat 6x
C/--------------7----------7-------7-------9-------9-------9--9----10-10-10--10/
[ Tab from: http://www.guitartabs.cc/tabs/k/korn/thoughtless_tab.html ]
A/--------5--5--5----6-6-6-6--5---5-5-5--6-6-6-6\-/--3---------------/  Pre-Chorus: 
D/--------3--3--3----4-4-4-4--3---3-3-3--4-4-4-4\-/--1---------------/  Repeat 2x
G/--------3--3--3----4-4-4-4--3---3-3-3--4-4-4-4\-/--1---------------/
C/-------------------------------------------------------------------/

A/--5-5-5-5---5--5-5-5-5-5--5--5-\-/--8--8--8--8-----8--8---8--8---8--8----8--8--\-/--
D/--7-7-7-7---7--7-7-7-7-7--7--7-\-/-10-10-10-10---10---10-10-10--10-10---10-10\-/--
G/--7-7-7-7---7--7-7-7-7-7--7--7-\-/-10-10-10-10---10---10-10-10--10-10---10-10\-/--
C/------------------------------------------------------------------------------------

\/ \/  *CHORUS* /\ /\

A/--3-3-3-3---3--3-3-3-3-3--3--3-\-/-1-1-1-1---1--1-1-1-1-1--\-/-3-3-3-3----/
D/--5-5-5-5---5--5-5-5-5-5--5--5-\-/-3-3-3-3---3--3-3-3-3-3--\-/-5-5-5-5----/
G/--5-5-5-5---5--5-5-5-5-5--5--5-\-/-3-3-3-3---3--3-3-3-3-3--\-/-5-5-5-5----/
C/--------------------------------------------------------------------------/
Comments