Korn - The Christmas Song Chords & Tabs

 

The Christmas Song Chords & Tabs

Korn Chords & Tabs

Version: 1 Type: Bass Tab 0 ratings
1 star 2 stars 3 stars 4 stars 5 stars
comments

The Christmas Song Bass Tab

   
Band: Korn
Song: The Christmas Song
Written by: Korn
Tabbed by Fernando Saavedra (hiv_k@hotmail.com)

Tuning (A,D,G,C,F)

Riff 1 (0:00  to 0:13)

F----------------------------------------------------------|
C----------------------------------------------------------|
G----------------------------------------------------------|
D----------------------------------------------------------|
A--3----4----1/3----2--1--1/3------------------------------|

Riff 2 (0:14 to 0:25)

F----------------------------------------------------------|
C----------------------------------------------------------|
G----------------------------------------------------------|
D----------------------------------------------------------|
A--3----4----1/3----2--1--1/5--4--3--2--1------------------|


Riff 3 (0:26 to 0:40)
[ Tab from: http://www.guitartabs.cc/tabs/k/korn/the_christmas_song_btab.html ]
F----------------------------------------------------------|
C----------------------------------------------------------|
G----------------------------------------------------------|
D----------------------------------------------------------|
A--5--4--3--4--1--5--4--3--2--1--5--4--3--4--1--3----------|

Bridge (0:40 to 0:47)

F----------------------------------------------------------|
C----------------------------------------------------------|
G----------------------------------------------------------|
D----------------------------------------------------------|
A--3----4----1/3-------------------------------------------|

Riff 2 (0:47 to 0:59)
Riff 3 (1:00 to 1:14)
Riff 1 (1:15 to 1:25)
Riff 2 (1:26 to 1:42)

Then silence

Riff 4 (fast) (1:53 to 2:29)

F----------------------------------------------------------|
C----------------------------------------------------------|
G----------------------------------------------------------|
D----------------------------------------------------------|
A--3-3-3-3-4-44-4-44---------------------------------------|

I think that's all...comments and corrections send it to 
hiv_k@hotmail.com
Comments