Korn - Tear Me Down Chords & Tabs

 

Tear Me Down Chords & Tabs

Korn Chords & Tabs

Version: 2 Type: Tab 0 ratings
1 star 2 stars 3 stars 4 stars 5 stars
comments

Tear Me Down Tab

SONG: Tear me down
ARTIST: KoRn
ALBUM: Untouchables (2002)
TRANSCRIBER: Ashley MacDonald

Hello ladies and gents... this is yet another FUCKING AWESOME track by the priceless KoRn.
The person who tabbed this before me did a good job and I agree with some of the stuff he 
did... but, some of it I did'nt so here we go.  

This is played on a 7-stringed guitar tuned down a step... SO NO FUCKIN BITCHES 
COMPLAINING ABOUT THE TUNING!!!

KEY
 /    Slide
 TAD  Tremelo Arm Dive
 ~    Vibrato
 *    Palm damp

INTRO gtr 1~clean, reverb
d|------------------------------------------------------
A|------------------------------------------------------
F|------------------------------------------------------
C|------------------------------------------------------
G|------------------------------------------------------
D|----5----5--------5----5------7----7----7----8-8-8-8--
A|-0 0--0 0------0-0--0-0----0-0--0-0--0-0--0-0---------

INTRO gtr 2~clean, chorus, delay >repeated picking on notes
d|------------------------------------------------------
A|------------------------------------------------------
F|------------------------------------------------------
C|------------------------------------------------------ 
G|------------------------------------------------------
D|---5-------7-------8----------------------------------
A|------------------------------------------------------

INTRO gtr 3~pitch, reverb
d|------------------------------------------------------
A|------------------------------------------------------
F|------------------------------------------------------
C|-----------/9---/12----/8-TAD~~~~~~-------------------
G|------------------------------------------------------
D|------------------------------------------------------
A|------------------------------------------------------

VERSE both gtrs~distortion
d|------------------------------------------------------
A|------------------------------------------------------
F|------------------------------------------------------
C|---------7------7----7----9----9-----9-----9-9-9-9----
G|-6-6-6-6-7------7----7----9----9-----9-----9-9-9-9----
D|-6-6-6-6-5------5----5----7----7-----7-----8-8-8-8----
A|-4-4-4-4-----0-0--0-0--0-0--0-0---0-0---0-0-----------
[ Tab from: http://www.guitartabs.cc/tabs/k/korn/tear_me_down_tab_ver_2.html ]
PRE CHORUS gtr1~distortion
d|------------------------------------------------------
A|------------------------------------------------------
F|------------------------------------------------------
C|------------------------------------------------------
G|-5-5-5/6-6-6-6/5-----5-5-5/6-6-6-6----3---------------
D|-5-5-5/6-6-6-6/5-----5-5-5/6-6-6-6----3--HOLD CHORD---
A|-3-3-3/4-4-4-4/3-----3-3-3/4-4-4-4-0--1---------------
                                     *
CHORUS gtr 1~distortion
d|------------------------------------------------------
A|------------------------------------------------------
F|------------------------------------------------------
C|------------------------------------------------------
G|-7-7-7-7--7-7--7-7-7-7--7-7--10101010-1010-10101010---
D|-7-7-7-7--7-7--7-7-7-7--7-7--10101010-1010-10101010---
A|-5-5-5-5--5-5--5-5-5-5--5-5--8-8-8-8--8-8--8-8-8-8----
    
d|------------------------------------------------------
A|------------------------------------------------------
F|------------------------------------------------------
C|------------------------------------------------------
G|-1010-5-5-5-5--5-5--5-5-5-5--5-5--3-3-3-3--3-3--3/5---
D|-1010-5-5-5-5--5-5--5-5-5-5--5-5--3-3-3-3--3-3--3/5---
A|-8-8--3-3-3-3--3-3--3-3-3-3--3-3--1-1-1-1--1-1--1/3---

PLAY VERSE   X4
PLAY PRE CHORUS   X2
PLAY CHORUS   X2

INTERLUDE gtr1~clean, chorus, heaps of delay
d|------------------------------------------------------
A|------------------------------------------------------
F|------------------------------------------------------
C|------------------------------------------------------
G|------------------------------------------------------
D|---5-------7----8-------------------------------------
A|------------------------------------------------------

INTERLUDE gtr2~slight overdrive, slight delay
d|------------------------------------------------------
A|------------------------------------------------------
F|------------------------------------------------------
C|------------------------------------------------------
G|------------------------------------------------------
D|----7----7------7----8-8-8-8---5--5--5----5-----------
A|-0-0--0-0----0-0--0-0---------0--0--0--0-0------------
   * ** * **   * ** * ** * * *  ** ** ** * **

PLAY VERSE WITH GUITAR 3'S INTRO   X4
PLAY GUITAR 3'S INTRO   X1
PLAY CHORUS   X4

END ON gtr 3~pitch, reverb
d|-----------------------------------------------------
a|-----------------------------------------------------
F|-----------------------------------------------------
C|---------8-TAD~~~~~----------------------------------
G|-----------------------------------------------------
D|-----------------------------------------------------
A|-----------------------------------------------------

#another guitar plays over the verse, pre chorus and chorus with some octave notes... 
I cant figure it out, if someone could figure it out and write it in the comments bar 
below... it would be much appreciated.

                   ~BY ASHLEY MACDONALD~
Comments