Korn - Tango Chords & Tabs

 

Tango Chords & Tabs

Korn Chords & Tabs

Version: 1 Type: Bass Tab

Tango Bass Tab

Band: KoRn
Song: Tango
Bass Player: Fieldy
Album: KoRn played this song before "Right now" at the MTV Latin Video Music Awards
2004, I called it "Tango" cause I think it sounds a little bit like a Tango!

00:00 - 00:19     no Bass

00:19 - 00:28
G|---------------------------------------------------| 
D|---------------------------------------------------| 
A|---------------------------------------------------| 
E|--0---0-0-----------0--------0-0-0-0----------0----| 

00:28 - 00:45
G|---------------------------------------------------| 
D|---------------------------------------------------|             5x
A|---------------------------------------------------| 
E|---0-0-0-0-2-3--3-3-3-3-2-0------------------------|

[ Tab from: http://www.guitartabs.cc/tabs/k/korn/tango_btab.html ]
00:45 - 01:03
G|---------------------------------------------------| 
D|---------------------------------------------------|             4x
A|---------------------------------------------------| 
E|-1---0---0--0-0-0----------------------------------|

01:03 - 01:11
G|---------------------------------------------------| 
D|---------------------------------------------------|             1x
A|---------------------------------------------------| 
E|---0-0-0-0-2-3--3-3-3-3-2-0------------------------|

Everything is slapped, only at 00:45 the    E|-1--...|      is popped!

You'll hear when the bass comes in.



This is my very first tab, so please have mercy... I know not everything is correct,
but notice: I play only a 4-String (Fieldy plays a 5-String), so not everything can
sound correct!

Jonathan_Davis